Oops, an error
Loading. Please wait.

Ballad Of Paul And Sheila Tab

version 2
version 2

Whole song

1,383 views 3 this week
1 commentread comment
1 2 3 4 5
please rate
add to favorites
launch autoscroll
font size
0
reset
how to read this tab
guitar tuner
Autoscroll
slow
fast
+/-
esc
set tempo
stop
Help us to improve Ultimate-Guitar.com Take our survey!
×
Author
Intro/Verse
eb---7-----7-----7------7-----2-----2----2----2-----|
Bb-------8-----8------8-----8----3-----3----3----3--|
Gb---0-0----0----0--0-----0-----0----0-----0---0----|
Db--------9------------9------0----4----0----4------|
Ab--------------------------------------------------|
Eb--------------------------------------------------|

-0----0----0----0----3----3----2----2----2----2----|
----1----1----1----1----3----3----3----3----3----3-|
---0---0-----0---0-----0---0-----2---2-----2---2---|
-----2---------2---------0-----0---4-----0---4-----|
-3---------3---------------------------------------|
---------------------3-----------------------------|


Chorus Tabs
eb-0----0----0----0----0----0----0----0------------|
Bb----1----1----1----1----1----1----1----1---------|
Gb---0---0-----0---0-----2---2-----2---2-----------|
Db-----2---------2---------2---------2-------------|
Ab-3---------3---------0---------0-----------------|
Eb-------------------------------------------------|

-2----2----2----2----0----0----3----3----3----3----|
----3----3----3----3----1----1----3----3----3---3--|
---2---2-----2---2-----0---0-----0---0-----0---0---|
-0---4-----0---4---------2---------0---------0-----|
--------------------3------------------------------|
-------------------------------3---------3---------|

Verse:
October morning, little plane on the forest floor
Up on the tv between a rerun and another war
Here in a hotel, trying to make some sense of this
Two thousand miles from my family in minneapolis


Chorus:
Hey senator, i wanna say
All the things you fought for did not die here today
Hey senator, i'm gonna do
All the things i can to live my life more like you lived

Intro Repeat

Verse:
A story of a love undivided for thirty-nine years
Strong when it counted through the hard times and the fears
Together forever, that was always what it was about
No hesitation, there was never any doubt

Chorus:
Hey hey sheila, I want to say
All the things you fought for did not die here today
Hey hey sheila, I'm gonna do
All the things I can to live my life more like you lived

Intro Repeat

Chorus:
Hey senator, I wanna say
All the things you fought for did not die here today
Hey hey sheila, I'm gonna do
All the things I can to live my life more like you lived

Outtro Tabs:
eb----------0---0h2p0-------------------------------|
Bb--0---3-------------3-0-------0-----0-------0-----|
Gb--------------------------0-------0-----0-------0-|
Db----0---0---0-----------0-------0-----0-------0---|
Ab--------------------------------------------------|
Eb--3---3---3---3-------3-----3-------3-----3-------| x 4 Then Strum G
Suggest correction
Give kudos to tab author, rate the tab!
1 2 3 4 5
comments
print report bad tab
1 comment total.
0 reply
Cobbs21206 239 wrote on May 17 2009, 08:33 pm

Why would you post a worse Version 2 of an already good tab?

guest
You may want to rate the tab now too:
select rating
Wanna post a correction for this tab? Suggest correction