Oops, an error
Loading. Please wait.

Memphis Tennessee Tab

2,836 views 1 this week
no commentswrite comment
1 2 3 4 5
please rate
add to favorites
launch autoscroll
font size
0
reset
how to read this tab
guitar tuner
Autoscroll
slow
fast
+/-
esc
set tempo
stop
Help us to improve Ultimate-Guitar.com Take our survey!
×
Author
-------------------------------------------------------------------------------
                      Memphis, Tennessee - by Mason Jennings
-------------------------------------------------------------------------------
Tabbed by: bobdogg23
Email: bobby_kennedy23@yahoo.com

Tuning: Standard

Verse 1:
-----------------------------------
G#m   F#m        B
I was born in a gold mine
G#m     F#m          B
You were born by the sea
  G#m     F#m       B
Without nothing we got something
G#m      F#m    B
Memphis, Tennessee, girl
G#m      F#m    B
Memphis, Tennessee

Verse 2:
-----------------------------------
G#m     F#m      B
Rain outside my window
G#m     F#m     B
Rain inside my head
G#m   F#m    B
Loneliness inside my heart
G#m       F#m   B
Emptiness in my bed, girl
G#m       F#m   B
Emptiness in my bed

Chorus: *He plays an alternating bass line through this part, check the bottom for a detailed tab.
-----------------------------------
E                   B
You.....ve got the love
       E
That I need
          B       F#major
That I'm dreaming of

Verse 3:
-----------------------------------
G#m   F#m      B
I was born to love you
G#m      F#m     B
You were born to resist
G#m     F#m       B
I would give everything I got
   G#m   F#m        B
To live inside your kiss, girl
   G#m   F#m        B
To live inside your kiss

[Repeat Chorus]

[Repeat V1]

Outro:
-----------------------------------
G#m      F#m   B
Memphis, Tennessee, girl
G#m      F#m   B
Memphis, Tennessee

==================
Chorus Tab:
                E (barre)                B
e|---------------------------------------------------------------------------|
B|---------------9-----9------9-----9-------4-----4-------4-----4------------|
G|---------------9-----9------9-----9-------4-----4-------4-----4------------|
D|---------------9-----9------9-----9-------4-----4-------4-----4------------|
A|--2--4--6---7------------7-------------2------------2----------------------|
E|------------------7-------------7------------2--------------2--------------|

                                                      F#major
e|---------------------------------------------------------------------------|
B|---------------9-----9-----9------9------4---------------2------2----------|
G|---------------9-----9-----9------9------4---------------3------3----------|
D|---------------9-----9-----9------9------4---------------4------4----------|
A|--2--4--6---7-----------7-------------2------1-----------4----4------------|
E|------------------7------------7----------------4---2----------------------|

************************************
Suggest correction
Give kudos to tab author, rate the tab!
1 2 3 4 5
comments
print report bad tab
guest
You may want to rate the tab now too:
select rating
Wanna post a correction for this tab? Suggest correction