Oops, an error
Loading. Please wait.

Train Leaving Gray Tab

version 2
version 2

Whole song

Interactive

3,721 views 1 this week
no commentswrite comment
1 2 3 4 5
2 more votes to show rating
add to favorites
launch autoscroll
font size
0
reset
how to read this tab
guitar tuner
Autoscroll
slow
fast
+/-
esc
set tempo
stop
Help us to improve Ultimate-Guitar.com Take our survey!
×
Difficulty
novice
this is more accurate



|------6---6-------4---3-------3---3------3---3-|
|------4---4-------3---3-------4---4------4---4-|
|--3-----------4-----------5-----------6--------|
|-----------------------------------------------|
|-----------------------------------------------|
|-----------------------------------------------|



|------3---3-------3---3-------1---1------2---2-|
|------4---4-------4---4-------3---3------3---3-|
|------5---5-------5---5---3-----------3--------|
|--6-----------6--------------------------------|
|-----------------------------------------------|
|-----------------------------------------------|


Hoping that I see you on the street
It's your kind of day
Nothing has the color of your eyes
Train leaving gray
And i'll never love no one
The way i loved you
I never thought that love
Could come true
Driving round the city in your car
Down low in the seat
Coming home and getting into bed
Smiling in your sleep
I'll never love no one
The way i loved you
You've never loved no one
Have you?
Hoping that I see you on the street
It's your kind of day
Nothing has the color of your eyes
Train leaving gray
Suggest correction
Give kudos to tab author, rate the tab!
1 2 3 4 5
comments
print report bad tab
guest
You may want to rate the tab now too:
select rating
Wanna post a correction for this tab? Suggest correction