Oops, an error
Loading. Please wait.

Ulysses Tab

13,747 views 6 this week
2 commentsread comments
1 2 3 4 5
accurate
x 3
add to favorites
launch autoscroll
font size
0
reset
how to read this tab
guitar tuner
Autoscroll
slow
fast
+/-
esc
set tempo
stop
Help us to improve Ultimate-Guitar.com Take our survey!
×
Author
ulysses
By mason Jennings
Tab by gavin wahl-stephens
Album: use you voice

Tune half step down

Intro/verse

       Am          C              G             C    few light strums
-------0-----------0--------------2-------------0----------------------|
-------1-----------1--------------2-------------1----------------------|
-------2-----------0--------------0-------------0----------------------|
---2---2--0-1-2----2--2-1-0-------0--0-2-----2-------------------------|
-0---------------3----------------2--------3---------------------------|
-------------------------------3---------------------------------------|

Chorus

Am              C                          G
-------------------0-----------------------------------|
-----1-----------1----------------0---1---1------------|
---2------2--------------0------0---0---0------0-------|
-------------------------------------------------------|
-0------0------3------3----------------------0---------|
-----------------------------3-------------------------|


Am                C                          G
-------------------0-----------------------------------|
-----1-----------1----------------0---1-------2-0------|
---2------2--------------0------0---0-----0-2-----2-1--|
-------------------------------------------------------|
-0------0------3------3--------------------------------|
-----------------------------3-------------------------|

To get the timing just listen to the song it is pretty easy to hear and the rhythm is uniform.

Am- x01220
C- x32010
G- 320022

Intro 4X
Verse
Intro riff
Verse
Chorus
Verse
Chorus 2x
Verse
Chorus 2x
Suggest correction
Give kudos to tab author, rate the tab!
1 2 3 4 5
comments
print report bad tab
2 comments total.
0 reply
tahcasti 10 wrote on November 18 2006, 03:29 pm

Hey how do you tune half a step down what is the tunning?

0 reply
neben 10 wrote on April 16 2007, 05:54 pm

best site to tune your guitar:
http://www.howtotuneaguitar.org/free-online-guitar-tuner/

excellent tab, one mistake at the end though instead of this:

-------------------0-----------------------------------|
-----1-----------1----------------0---1-------2-0------|
---2------2--------------0------0---0-----0-2-----2-1--|
-------------------------------------------------------|
-0------0------3------3--------------------------------|
-----------------------------3-------------------------|

it should be this:

-------------------0-----------------------------------|
-----1-----------1----------------0---1----------------|
---2------2--------------0------0---0---------2-0------|
------------------------------------------0-2-----2-1--|
-0------0------3------3--------------------------------|
-----------------------------3-------------------------|

guest
You may want to rate the tab now too:
select rating
Please do not post tabs as comments. Select "correction" instead!