Oops, an error
Loading. Please wait.

Which Way Your Heart Will Go Tab

version 2
version 2

Whole song

7,293 views 3 this week
1 commentread comment
1 2 3 4 5
accurate
x 3
add to favorites
launch autoscroll
font size
0
reset
how to read this tab
guitar tuner
Autoscroll
slow
fast
+/-
esc
set tempo
stop
Help us to improve Ultimate-Guitar.com Take our survey!
×
Author
"Which Way Your Heart Will Go" By Mason Jennings

This is pretty much the same as the other tab, only with the low Eb string 
dropped to Db, this means you can play the end of the song correctly!! I’ve also 
included the walks up and down between verse and chorus and at the end of the 
song – so I hope it’s not too messy and hard to follow!

**Tune Down 1/2 Step – and drop to Db**

1. Intro (x2)/ 2.verse (x2)   

(Fingerpicking:)
   Bm        A        G         Em
eb|-----------------------------------------|
Bb|---3--------2---------0----------0-------|
Gb|-----4--------2---------0----------0-----|
Db|-------4--------2---------0----------2---|
Ab|-2--------0------------------------------|
Db|-------------------5---------2-----------|

    D           A           G          
eb|-----2-----------------------------|-----------|       
Bb|-------3--------2-----------0------|-----------|       
Gb|---------2--------2-----------0----|----0----0-|       
Db|-0------------------2-----------0--|-----------|       
Ab|-------------0---------------------|------0----|       
Db|-------------------------5---------|-5---------|
                                      (Walk up to Bm - in intro & verse)

(Chords:)
Bm     A        G       Em   D    A        G
Little airplane in the sky - You point up at it
Bm            A          G           Em   D      A        G   
I watch your face as you watch it go by - Everything is perfect
 
     
eb|-----------|
Bb|-----------|
Gb|----0---0--|
Db|-----------|
Ab|-----------|
Db|--5---4----|
 (Walk down to Em as it leads into the chorus)

3. Chorus:
(From here you can most likely follow using the same chords
as above, but I have included the finger picking just for the 
walks Mason does leading in and out of the different sections)
    
(Finger picking:)
    Em                A                  D        A         G
eb|----------------------------------------2---------------------------------|
Bb|---0--------0--------2--------2-----------3-------2--------0--------------|
Gb|-----0--------0--------2--------2-----------2-------2--------0------0---0-|
Db|-------2--------2--------2--------2---0---------------2--------0----------|
Ab|-------------------0--------0------------------0--------------------------|
Db|-2--------2----------------------------------------------5--------5---4---|
         Where would I  be...                If all my dreams...

    Em                A                   D        A         G      Em
eb|------------------------------------|----2----------------------------------|
Bb|---0--------0--------2--------2-----|------3-------2--------0--------0------|
Gb|-----0--------0--------2--------2---|--------2-------2--------0--------0----|
Db|-------2--------2--------2--------2-|--0---------------2--------0--------2--|x3
Ab|-------------------0--------0-------|-----------0---------------------------|
Db|-2--------2-------------------------|---------------------5--------2--------|
        Deep down I   know somehow...         I’d have never...
                                              This world would be...
                                              Darlin’ theres no way...

    Em                G
eb|-----------------------------|
Bb|---0--------0--------0-------|
Gb|-----0--------0--------0-----|
Db|-------2--------2--------0---|
Ab|-----------------------------|
Db|-2--------2--------5---------|
       Which way your heart will go...

(Chords:)
Em            A                           D          A              G
Where would I be right now                If all my dreams had come true
Em           A                            D  A            G        Em
Deep down I know somehow                  I'd have never seen your face
D    A                 G        Em        D   A                G      Em
This world would be a different place     Darling, there's no way to know
                 G
Which way your heart will go...


4. Intro repeat (one time through chord progression)

5. Verse
Summer sun on a sandy slide
Silver swing sets shining
How can life feel so alive
And still feel like dying

6. Chorus

7. Intro repeat (two times through)

8. Verse
A stack of books beside our bed
Living out of boxes
Why does the empty space fill with dread
Why does change still shock us

9. Chorus:
Where would we be right now
If all our dreams had come true
Deep down I know somehow
I'd have never seen your face
This world would be a different place
Darling, there's no way to know

10. Outro:
             A        A        G        (walk up)        A       A       G
eb|------------------------------------|-----------------------------------------|
Bb|------------2--------2--------0-----|-------------------2-------2-------0-----|
Gb|---0---0------2--------2--------0---|---0---0---0---0-----2-------2-------0---|
Db|----------------2--------2--------0-|-----------------------2-------2-------0-|
Ab|----------0--------0----------------|-------------2---0-------0---------------|
Db|-2---4----------------------5-------|-2---4---5-----------------------5-------|
                Which way your  heart...                   Which way...

11. End:
    Em                A
eb|------------------------0-----------------------|
Bb|---0------------3-----3--------3----------------|
Gb|-----0--------2-----0---------2-----------------|
Db|-------2----0----------------0----(let ring)----|
Ab|----------------------------0-------------------|
Db|-2--------0-------0--------0--------------------|
       Which way your  heart will go...
Suggest correction
Give kudos to tab author, rate the tab!
1 2 3 4 5
comments
print report bad tab
1 comment total.
0 reply
Cobbs21206 239 wrote on May 17 2009, 08:44 pm

Good catch on the ending!

guest
You may want to rate the tab now too:
select rating
Please do not post tabs as comments. Select "correction" instead!