Oops, an error
Loading. Please wait.

Classical Gas Tab

317,829 views 156 this week
17 commentsread comments
1 2 3 4 5
x 68
add to favorites
launch autoscroll
font size
0
reset
how to read this tab
guitar tuner
Autoscroll
slow
fast
+/-
esc
set tempo
stop
Help us to improve Ultimate-Guitar.com Take our survey!
×
Author
CLASSICAL GASOLINE/CLASSICAL GAS
                          As recorded by Mason Williams
           (From the 1968 Album THE MASON WILLIAMS PHONOGRAPH RECORD)

Music by Mason Williams
Arranged by Jim Mason

This is from the official Mason Williams tab book: 
"Classical Gas" - The Music of Mason Williams.
Personally, I think, this is the best version out there, hope you like it
-Emil Møller Rasmussen


Gtr I (E A D G B E) - 'Untitled'

  3/4
   Gtr I
   Q   Q  Q     H.       Q   Q  Q    H.
e|-----------|---------|----------|------|
B|-1------1--|-^0------|-0--------|------|
G|-----2-----|-^0------|-0---2--0-|-^2---|
D|-----------|-^0------|-2--------|-^2---|
A|-0---------|---------|----------|-^0---|
E|-----------|-^3---2--|-0--------|------|
  H.           H   Q    H.          H.

            |-3-|
   E     E  S S S E  E  E    H.         E   E  E  E  E  E
e|-------------------------|---------|---------------------|
B|----------0h1p0----0h=1--|-0-------|-^0---------------0--|
G|-------2--------2--------|-0-------|-^0---2--0--0h=2-----|
D|-------------------------|-0-------|-^2------------------|
A|-0-(0)-------------------|---------|---------------------|
E|-------------------------|-3----2--|-^0------------------|
    +H.                     H    Q     H.

       |-3-| |-3-| |-3-|
    Q  E E E E E E E E E   Q  E E Q  Q    E     E  H.
e|-----------------------|-0------------|-------------|
B|---------0-----1-----3-|------3-1--3--|-------1--0--|
G|-^2----0-----2-----0---|----0---2-----|-------------|
D|-^2--------------------|--------------|-2-(2)-------|
A|-^0--------0-----2-----|-3------------|-------------|
E|-----3-----------------|--------------|-------------|
   Q                      H      H         +W

[Allegro Q=160]
   |-3-|
   E E E E E +E  Q   E   +W                  E E E E +E  Q   E
e|---------------------|-------------------|--------------------|
B|-0h1p0-1-------1---0-|-(0)---------------|-0-----------0------|
G|---------2-(2)-------|-------0-----0-----|---2-0-2-(2)-----2--|
D|-----------------2---|-----0-----0-----0-|-2------------------|
A|-0----------0--------|-------------------|--------------------|
E|---------------------|--3------2-----0---|----------0----0----|
  H          Q    Q      E  E E E E E E E   H        Q    Q


                       |-3-|
   +Q    Q             E E E E E +E  Q   E   +W
e|-------------------|---------------------|--------------------|
B|-------------------|-0h1p0-1-------1---0-|-(0)----------------|
G|-(2)---2-----2-----|---------2-(2)-------|-------0-----0------|
D|-----2-----2-----2-|-----------------2---|-----0-----0-----0--|
A|--0------0-----0---|-0----------0--------|--------------------|
E|-------------------|---------------------|--3------2-----0----|
   E  E E E E E E E   H          Q    Q      E  E E E E E E E

                                           |-3-|
   E E E E +E  Q   E   +Q    Q             E E E E E +E  Q   E
e|-------------------|-------------------|----------------------|
B|-0-----------0-----|-------------------|-0h1p0-1-------1---0--|
G|---2-0-2-(2)-----2-|-(2)-0h2---0h2-----|---------2-(2)--------|
D|-2-----------------|-----0h2---0h2---2-|-----------------2----|
A|-------------------|--0------0-----0---|-0----------0---------|
E|----------0----0---|-------------------|----------------------|
  H        Q    Q      E  E E E E E E E   H          Q    Q

   +W                  E E E E +E  Q   E   +Q    Q
e|-------------------|-------------------|-------------------|
B|-(0)---------------|-0-----------0-----|-------------------|
G|-------0-----0-----|---2-0-2-(2)-----2-|-(2)-0h2---0h2-----|
D|-----0-----0-----0-|-2-----------------|-----0h2---0h2---2-|
A|-------------------|-------------------|--0------0-----0---|
E|--3------2-----0---|----------0----0---|-------------------|
   E  E E E E E E E   H        Q    Q      E  E E E E E E E

   |-3-|
   E E E E E +E  Q   E   +W                  E E E E +E  Q   E
e|---------------------|-------------------|--------------------|
B|-0h1p0-1-------1---0-|-(0)---------------|-0-----------0------|
G|---------2-(2)-------|-------0-----0-----|---2-0-2-(2)-----2--|
D|-----------------2---|-----0-----0-----0-|-2------------------|
A|-0----------0--------|-------------------|--------------------|
E|---------------------|--3------2-----0---|----------0----0----|
  H          Q    Q      E  E E E E E E E   H        Q    Q

                                                               2/4
   +E  E E E +E  E E E   +E  E Q    E  Q   E   Q  E E Q   E E   +E  E Q
e|---------------------|---------------------|-0--------------|----------|
B|---------0-(0)---0-1-|-(1)---1-------3-----|------3-1---3---|-----1-0--|
G|-(2)---0-------0-----|-----2------0------0-|----0---2-------|----------|
D|-----2---------------|---------------------|--------------2-|-(2)------|
A|--0------------------|--0------2-(2)---2---|-3--------------|----------|
E|------------3--------|---------------------|----------------|----------|
   H         H           Q.     E +Q    Q     H      Q.

  4/4
   Q.  E E Q  E    E E E E +E  E E E   +E  E Q    E  Q   E
e|---------------|-------------------|---------------------|
B|---------------|-------0-(0)---0-1-|-(1)---1-------3-----|
G|-2---0-2-2--0--|-2---2-------0-----|-----2------0------0-|
D|-3---0-2-2--0--|---2---------------|---------------------|
A|---------------|-0-----------------|--0------2-(2)---2---|
E|-1-----0-------|----------3--------|---------------------|
  Q.  E H         H        H           Q.     E +Q    Q

  6/4                           3/4
   E  E E E E E E  E E E  E  E   E E E E E E
e|-0------1-----2------3-------|-4p0-5p0-7p0----|
B|----1-----1------3------3----|----------------|
G|------0-----2------2-------4-|----------------|
D|--------------0--------------|----------------|
A|-3---------------------------|----------------|
E|--------1------------3-(3)---|-0--------------|
  Q.           Q.     E +Q      H.

  4/4
   E E E E +E  Q   E   +E  E Q    E  Q  E   E E E E +E  Q   E
e|-8-7-5-------5-----|-----5------5-----5-|-8-7-5-------5-----|
B|-5-5-5-8-(8)-5---7-|-(7)-7-7----7--7--5-|-5-5-5-8-(8)-5---7-|
G|-5-5-5-5-(5)-5---7-|-(7)-7-7----7--7--5-|-5-5-5-5-(5)-5---7-|
D|-------5-(5)-----7-|-(7)---7-------7----|-------5-(5)-----7-|
A|----------7--------|--5------5-(5)------|----------7--------|
E|-5-------------5---|--------------------|-5-------------5---|
  H        Q    Q      Q.     E +Q.    E   H        Q    Q

   +E  Q   E  E  E E E   E E E E +E  Q   E   +E  E E E Q    E  E
e|---------5---------5-|-8-7-5-------5-----|-------8-5------5--3-|
B|-(7)-8---7--8----5---|-5-5-5-8-(8)-5---7-|-(7)---7-7-8----7--3-|
G|-(7)-7---7--7--5-----|-5-5-5-5-(5)-5---7-|-(7)-7-7-7-7----7--4-|
D|-(7)-7------7--------|-------5-(5)-----7-|-(7)-------7---------|
A|--5----5---(5)-------|----------7--------|--5----------5-(5)---|
E|---------------------|-5-------------5---|---------------------|
   Q    Q   +E  E Q     H        Q    Q      H        E E +E

  5/4                         6/4
   +E  E Q    E  E +E  E Q     E  Q.     Q   +E  Q.      Q
e|-(3)-----------1-(1)-------|----0------0---(0)-0-------0--|
B|-(3)---5-------1-(1)---3---|----3------3---(3)-3-------3--|
G|-(4)---5----5----------3---|----2------2---(2)-2-------2--|
D|-----5---------------3-----|------------------------------|
A|---------3-(3)-----------1-|-0------0-(0)---0-------0-(0)-|
E|--3---------------1----1---|------------------------------|
   Q.     E +E  E  Q    E E   Q.     E +Q    Q.      E +E

  4/4
   E E E E H     +W       E Q  E +E  E Q    Q  Q  H
e|---------0---|-(0)---||-1-1----------1--|-2--2--1-|
B|-------3-----|-------||-2-2--------2----|-2--2--2-|
G|-----2-------|-------||-1-1--1-(1)------|-3--3--1-|
D|---3---------|-------||-----------------|---------|
A|-0-----------|-(0)---||-4-4--4-(4)------|-------4-|
E|-------------|-------||-----------------|-4--4----|
  W             +W       E Q  E +H         Q  Q  H

   E Q  E +E  E Q    Q  Q  E  E  E  E   E Q  E +E  E Q
e|-1-1----------1--|-2--2--1--------1-|-4-4----------4-|
B|-2-2--------2----|-2--2--2-----2----|-5-5--------5---|
G|-1-1--1-(1)------|-3--3--1--1-------|-4-4--4-(4)-----|
D|-----------------|------------------|----------------|
A|-4-4--4--4-------|-------4----------|------7-(7)-----|
E|-----------------|-4--4-------------|-0-0------------|
  E Q  E  H         Q  Q  H            E Q  E +H

   Q  Q  Q    E Q  E +E  E Q    Q  Q  E   E  E  E
e|-5--5--4--|-4-4----------4--|-5--5--4------4--3--|
B|-5--5--5--|-5-5--------5----|-5--5--5---5-----3--|
G|-6--6--4--|-4-4--4-(4)------|-6--6--4---------4--|
D|----------|-----------------|--------------------|
A|-------7--|------7-(7)------|--------------------|
E|-7--7-----|-0-0-------------|-7--7--0---------3--|
             E Q  E +H         Q  Q  Q.        E

  5/4                  6/4
   +Q  Q +E  E +Q  Q        Q.      Q.  +E   Q.      Q
e|-(3)-3-(3)-5-(5)-6--|-----0-------0---(0)--0-------0---|
B|-(3)-5-(5)-6-(6)-6--|-----3-------3---(3)--3-------3---|
G|-(4)-5-(5)-5-(5)-7--|-----2-------2---(2)--2-------2---|
D|--------------------|----------------------------------|
A|-----3-(3)-8-(8)----|-0-------0--(0)---0-------0--(0)--|
E|-(3)-------------6--|----------------------------------|
  +Q  Q +E  E +Q  Q    Q.      E  +Q    Q.      E  +E

  4/4
                                         |-3-|
   E Q  E +E  Q  E   +E  Q  E E E E E    E E E E E +E  E E E
e|---------------0-|-(0)--------------||---------------------|
B|------------3----|-----2--------3---||-0h1p0-1-----------3-|
G|------2-(2)------|--------2---2---0-||---------2-(2)---2---|
D|---3-------------|----------3-------||---------------2-----|
A|-0---------------|-(0)--------------||-0----------0--------|
E|-----------------|------------------||---------------------|
  W                 +W                  H          H
                                        
                       |-3-|
   +Q                  E E E E E +E  E E E   +Q
e|-------------------|---------------------|--------------------|
B|-(3)---1-----0-----|-0h1p0-1-----------0-|-(0)----------------|
G|-----2-----2-----2-|---------2-(2)---2---|-------2-----0------|
D|-------------------|---------------2-----|-----2-----2-----2--|
A|--0------0-----0---|-0----------0--------|--0------0-----0----|
E|-------------------|---------------------|--------------------|
   E  E E E E E E E   H          H           E  E E E E E E E

   |-3-|
   E E E E E +E  E E E   +Q          Q +E  E   E  E E E  E  E E E
e|---------------------|---------------------|---------------------|
B|-0h1p0-1-----------0-|-(0)---1-----3-(3)S5-|-5----5-3-----3-1----|
G|---------2-(2)---2---|-----2-----2---(2)S5-|----5------4------2--|
D|---------------2-----|---------------------|---------------------|
A|-0----------0--------|--0------0------0----|-0------0-(0)---0----|
E|---------------------|---------------------|---------------------|
  H          H           E  E E E Q    Q      Q.     E +Q    Q

    E  E  E  E E E E E   E E E E E E E E   +E  E E E E E E E
e|---------------------|-0---0-----------|-----------1p0-----|
B|--1--0-----0---0-1-3-|---3---1-1---1-0-|-(0)---3-------3-0-|
G|--------0----2-------|-----------0-----|-----0---0---------|
D|---------------------|-----------------|-------------------|
A|-(0)-0-(0)---0---0-2-|-3-------3-------|--2----2---2-------|
E|---------------3-----|-----------------|-------------------|
  +E  E +Q    E E E E   H       H          Q    Q   H

   E E E E +E  E E E   +E  E E E E E E E   E E E E +E  E E E
e|-0---0-------------|-----------1-0-----|-0---0-------------|
B|---3---1-(1)---1-0-|-(0)---3-------3-0-|---3---1-(1)---1-0-|
G|-------------2-----|-----0---0---------|-------------0-----|
D|-------------------|-------------------|-------------------|
A|-0--------0--------|-------------------|-3--------3--------|
E|-------------------|--3----0---3-------|-------------------|
  H        H           Q    Q   H         H        H

   +E  E E E E E E E   E E E E +E  E E E   +W
e|-----------1p0-----|-0---0-------------|-------------------|
B|-(0)---3-------3-0-|---3---1-(1)---1-0-|-(0)---------------|
G|-----0---0---------|-------------2-----|-------0-----0-----|
D|-------------------|-------------------|-----0-----0-----0-|
A|--2----2---2-------|-0--------0--------|-------------------|
E|-------------------|-------------------|--3------2-----0---|
   Q    Q   H         H        H           E  E E E E E E E

   E E E E +E  Q   E   E E E E E E E E   E E E E E E E E
e|-------------------|-----------------|-0---1---2---3---|
B|-0-----------0-----|-----0---1---3---|---1---1---3---3-|
G|---2-0-2-(2)-----0-|-2-----0---2---0-|-----------------|
D|-2-----------------|---2-------------|---------0-------|
A|-------------------|-0-------0---2---|-3---------------|
E|----------0----0---|-----3-----------|-----1-------3---|
  H        Q    Q     Q   Q   Q   Q     Q   Q       Q

  3/4                 4/4
   E  E  E  E  E  E    E  E  E  E +E   Q    E
e|-4p=0--5p=0--7p=0-||-8--7--5---------5------|
B|------------------||-5--5--5--8-(8)--5----7-|
G|------------------||-5--5--5--5-(5)--5----7-|
D|------------------||----------5-(5)-------7-|
A|------------------||-------------7----------|
E|-0----------------||-5-----------------5----|
  H                   H           Q     Q

   +E  E Q    E  Q  E   E E E E +E  Q   E   +E  Q   E  E  E E E
e|-----5------5-----5-|-8-7-5-------5-----|---------5---------5-|
B|-(7)-7-7----7--7--5-|-5-5-5-8-(8)-5---7-|-(7)-8---7--8----5---|
G|-(7)-7-7----7--7--5-|-5-5-5-5-(5)-5---7-|-(7)-7---7--7--5-----|
D|-(7)---7-------7----|-------5-(5)-----7-|-(7)-7------7--------|
A|--5------5-(5)------|----------7--------|--5----5---(5)-------|
E|--------------------|-5-------------5---|---------------------|
   Q.     E +Q.    E   H        Q    Q      Q    Q   +E  E Q

   E  E  E  E  +E   Q     E    +E   E  E  E  Q     E  E
e|-8--7--5----------5--------|---------8--5--------5--3-|
B|-5--5--5--8--(8)--5-----7--|-(7)-----8--7--8-----7--3-|
G|-5--5--5--5--(5)--5-----7--|-(7)--7--7--7--7--------4-|
D|----------5--(5)--------7--|-(7)-----------7----------|
A|--------------7------------|--5---------------5-------|
E|-5-------------------5-----|--------------------------|
  H            Q      Q        H            E  Q     E

  5/4
   +E   E   Q      E  E +E   E Q         q    Q   +E  Q.     Q
e|-(3)----------------1-(1)---------|----0----0---(0)-0------0--|
B|-(3)------5---------1-(1)----3----|----3----3---(3)-3------3--|
G|-(4)------5------5-----------3----|----2----2---(2)-2------2--|
D|------5--(5)---------------3------|---------------------------|
A|--------------3-(3)-------------1-|-0----0-(0)---0------0-(0)-|
E|--3--------------------1----------|---------------------------|
   Q.          E +E  E  Q.       E   Q.   E +Q    Q.     E +E

 4/4
        |-----7-----|
  +H    E E E E E E E   W      +W
|-(0)---------0-------|-0----|-(0)-----------------|
|-(3)-------3---3-----|-3----|-(3)-----------------|
|-(2)-----2-------2---|-2----|-(2)-2-0-------------|
|-------3-----------3-|-3----|-(3)------2-(2)-0----|
|-(0)-----------------|-0----|-(0)--------------3--|
|---------------------|------|---------------------|
  +W                           +W  E Q  E +E  E Q

   |-3-|
   E E E E E +E  Q   E   +W                  E E E E +E  Q   E
e|---------------------|-------------------|--------------------|
B|-0h1p0-1-------1---0-|-(0)---------------|-0-----------0------|
G|---------2-(2)-------|-------0-----0-----|---2-0-2-(2)-----2--|
D|-----------------2---|-----0-----0-----0-|-2------------------|
A|-0----------0--------|-------------------|--------------------|
E|---------------------|--3------2-----0---|----------0----0----|
  H          Q    Q      E  E E E E E E E   H        Q    Q

                       |-3-|
   +Q    Q             E E E E E +E  Q   E   +W
e|-------------------|---------------------|--------------------|
B|-------------------|-0-1-0-1-------1---0-|-(0)----------------|
G|-(2)-0h2---0h2-----|---------2-(2)-------|-------0-----0------|
D|-----0h2---0h2---2-|-----------------2---|-----0-----0-----0--|
A|--0------0-----0---|-0----------0--------|--------------------|
E|-------------------|---------------------|--3------2-----0----|
   E  E E E E E E E   H          Q    Q      E  E E E E E E E

   E E E E +E  Q   E   +E  E E E +E  E E E   +E  E Q    E  Q   E
e|-------------------|---------------------|---------------------|
B|-0-----------0-----|---------0-(0)---0-1-|-(1)---1-------3-----|
G|---2-0-2-(2)-----2-|-(2)---2-------0-----|-----2------0------0-|
D|-2-----------------|-----2---------------|---------------------|
A|-------------------|--0------------------|--0------2-(2)---2---|
E|----------0----0---|------------3--------|---------------------|
  H        Q    Q      H         H           Q.     E +Q    Q

                   2/4        4/4
   Q  E E Q   E E   +E  E Q    Q.  E E Q  E
e|-0--------------|----------|--------------|
B|------3-1---3---|-----1-0--|--------------|
G|----0---2-------|----------|-2---0-2-2--0-|
D|--------------2-|-(2)------|-3---0-2-2--0-|
A|-3--------------|----------|--------------|
E|----------------|----------|-1-----0------|
  H      Q.                   Q   E H

                                      3/4
   E E E E E E E E   E E E E E E E E   E  E E E E E
e|-----------------|-0---1---2---3---|-4----5---7-5-|
B|-----0---1---3---|-1---1---3---3---|-5----5---5-5-|
G|-2---0---2---0---|---0---2---2---4-|----4---4-----|
D|---2---0---2---0-|---------0-------|--------------|
A|-0-------0---2---|-3---------------|--------------|
E|-----3-----------|-----1-------3---|-0------------|
  Q   Q   Q   Q     Q   Q   E   Q     H.

  4/4
    E  E Q    E  E +E  E    Q     E  E +E  E Q      E  Q  E +E  Q  E
e|-(5)-----------3-(3)---|-----------1-(1)-------||----------------0-|
B|--5----7-------3-(3)---|--5--------1-(1)---3---||-------------3----|
G|-------7----7----------|--5-----5----------3---||-------2-(2)------|
D|-----7---------------5-|-----------------3-----||----3-------------|
A|---------5-(5)---------|-----3-(3)-----------1-||-0----------------|
E|--5---------------3----|-(3)----------1--------||------------------|
   Q.     E +Q     Q      +Q  E +E  E  Q.     E    W

                                               H.=H
                                                              |-3-|
   +E  Q E E E E E   E Q  E +E  Q E    +E  Q E E E E E    H.  E E E
e|-(0)-------------|--------------0--|-(0)-------------|------------|
B|-----3-------3---|------------3----|-----3-------3-0-|-^2-------2-|
G|-------2---2---2-|------2-(2)------|-------2---2---0-|-^2-----2---|
D|---------3-------|---4-------------|---------4-------|-^2---------|
A|-(0)-------------|-0---------------|-(0)-------------|-^0---0-----|
E|-----------------|-----------------|-----------------|------------|
  +W                W                 +W                 H.  Q

   |-3-| |-3-| |-3-| |-3-|   |--3--| |--3--|
   E E E E E E E E E E E E   E  E  E E  E  E     E  E  H.    E
e|-------------------------|-----------------|-^-9-----9---|-5----------|
B|-----3-----5-----7-----8-|------10------12-|-^10-12-10---|-5----------|
G|---4-----6-----7-----9---|---11------12----|-^-9---------|-6----------|
D|-------------------------|-----------------|-------------|-7----------|
A|-0-----0-----0-----0-----|-0-------0-------|-^-0---------|-7----------|
E|-------------------------|-----------------|-------------|-5----------|
  Q     Q     Q     Q       Q       Q           W           E E Q W




************************************

| (n)  Ghost note
| h    Hammer-on
| p    Pull-off
| =    hold bend; also acts as connecting device for hammers/pulls

Duration Legend
---------------
W - whole; H - half; Q - quarter; E - 8th; S - 16th; T - 32nd; X - 64th; a - acciaccatura
+ - note tied to previous; . - note dotted; .. - note double dotted
Uncapitalized letters represent notes that are staccato (1/2 duration)
Irregular groupings are notated above the duration line
Duration letters will always appear directly above the note/fret number it represents the
duration for.  Duration letters with no fret number below them represent rests.  Multi-
bar rests are notated in the form Wxn, where n is the number of bars to rest for.  Low
melody durations appear below the staff

************************************
Suggest correction
comments
print report bad tab
17 comments total. Showing first comments.
+1 reply
cky95 10 Sep 28, 2005 12:51 PM

brilliant. ive just glanced over this but it seems very acurate. the one tabbed under eric clapton is very good too but this one sounds fuller.

0 reply
mikeman 160 Nov 11, 2005 04:09 PM

Very Cool.

0 reply
Ernie Ball 10 Apr 16, 2006 09:23 AM

This is very good, better than Claptons.

guest
You may want to rate the tab now too:
select rating
Wanna post a correction for this tab? Suggest correction