Oops, an error
Loading. Please wait.

Dawn Of Eternity Tab

version 1
version 1

Whole song

Interactive

1,988 views 12 this week
no commentswrite comment
1 2 3 4 5
x 3
add to favorites
launch autoscroll
font size
0
reset
how to read this tab
guitar tuner
Autoscroll
slow
fast
+/-
esc
set tempo
stop
Help us to improve Ultimate-Guitar.com Take our survey!
×
Author
Difficulty
intermediate
.  - palm mute           /  - slide up to

\  - slide down to       ~  - vibrato

h  - hammer on           b  - Bend

p  - pull off            Suffixes for bend

t  - tap                 f  - full bend    h - half bend

ph - pinched harmonic    q  - quarter bend t - tap bend

*  - see comment         ^  - Hold bend    r release bend

x  - Stuccatto           ~  - vibrato bend

,  - slight palm mute    () - ghost note, sustained note

"  - tremolo note        <> - Trill



Tuning D G C F A d



|----------|
|----------|
|----------|
|----------|
|------12\-|
|------12\-|





Riff 1 x4

|-------------------------------------------------------------------|
|-------------------------------------------------------------------|
|---------------------------4-------3-------------------------------|
|-2-------------------------4-------3-----------------------5---4---|
|-2-------------------------2-------1-----------------------5---4---|
|-0---------------------------------------------------------3---2---|

                                                            .   .



Riff 2 x4

|-------------------------------------------------------------------|
|-------------------------------------------------------------------|
|---------------------------4-------3-------3-------3---------------|
|-2-------2-------2---------4-------3-------3-------3-------5---4---|
|-2-------2-------2---------2-------1-------1-------1-------5---4---|
|-0---0-0-0---0-0-0---0-0-0-----0-0-----0-0-----0-0-----0-0-3---2---|

      . .     . .     . . .     . .     . .     . .     . . .   .



After the 4th time

|------------------|
|------------------|
|------------------|
|-2----------------|
|-2----------------|
|-0----------------|





Riff 3 (Verse) x6
|--------------------------------------------|
|--------------------------------------------|
|--------------------------------------------|
|-3---------3----3--4--3--------3------------|
|-1---------1----1--2--1--------1------------|
|---00000000--000--------0000000--0002-3-2-0-|

    ........  ...        .......  .... . . .



Riff 4 x4

|--------------------------------------------------------------|
|--------------------------------------------------------------|
|--------------------------------------------------------------|
|--------------------------------------------------------------|
|---------------------22221111---------------------------------|
|-00000000000033332222--------33333333222222220000000022222222-|

  ............................................................



Repeat riff 3 x6

Repeat riff 4 x4

Repeat riff 1 x2

Repeat riff 2 x4



|-------------------------------------------------------------------|
|-------------------------------------------------------------------|
|-------------------------------------------------------------------|
|-2---------------------------------3---3---3---3---3---3---3---3---|
|-2---------------------------------1---1---1---1---1---1---1---1---|
|-0-----------------------------------------------------------------|





Riff 5 x1

|-------------------------------------------------------------------|
|-------------------------------------------------------------------|
|-------------------------------------------------------------------|
|-------------------------------------------------------------------|
|-------------------------------------------------------------------|
|-0-00000-0-00000-0-00000-0-00000-0-00000-0-00000-0-00000-0-00000---|

  . ..... . ..... . ..... . ..... . ..... . ..... . ..... . .....



Riff 6 x2

|-------------------------------------------------------------------|
|-------------------------------------------------------------------|
|-------------------------------------------------------------------|
|-------------------------------------------------------------------|
|-------------------------------------------------------------------|
|-0-00000-0-00000-0-00000-0-00000-3-33333-3-33333-2-22222-2-22222---|

| . ..... . ..... . ..... . ..... . ..... . ..... . ..... . .....   |

|                                                                   |
|-------------------------------------------------------------------|
|-------------------------------------------------------------------|
|-------------------------------------------------------------------|
|-------------------------------------------------------------------|
|---------------------------------------------------------1ph-------|
|-0-00000-0-00000-0-00000-0-00000-3-33333-3-33333-2-22222-----------|

  . ..... . ..... . ..... . ..... . ..... . ..... . .....



Repeat riff 5 x1

Repeat riff 3 (solo)

Repeat riff 4 x4



|-----|
|-----|
|-----|
|-2---|
|-2---|
|-0---|





END



Thanks to thudord@yahoo.com
Suggest correction
Give kudos to tab author, rate the tab!
1 2 3 4 5
comments
print report bad tab
guest
You may want to rate the tab now too:
select rating
Wanna post a correction for this tab? Suggest correction