Oops, an error
Loading. Please wait.

El Probador Tab

35 views 1 this week
no commentswrite comment
1 2 3 4 5
3 more votes to show rating
add to favorites
launch autoscroll
font size
0
reset
how to read this tab
guitar tuner
×
Best way to learn
"El Probador"
Autoscroll
slow
fast
+/-
esc
set tempo
stop
Intro
|---------------------------------------------------------|
|---------------------------------------------------------|
|---------------------------------------------------------|   x6
|--4------4-----------4-4--4-----6--4--------4----2-2--2-2|
|-------6-----------6--------------------6----------------|
|---------------------------------------------------------|


G#5                      F#5
     Entró al probador
E5
     y agarró la minifalda
G#5                      F#5
    luego la calzó
E5
    y después giró la espalda.
G#5                      F#5
   Llamó al vendedor,
E5
   quiso que le dé un consejo:
G#5                      F#5
   quería saber
E5
   si el cuero era viejo

Intro x2

C#5                  E5
     El muchacho no pudo pensar,
           B5
     comenzó a transpirar,
             D#5
     se le iba a dar
C#5                       E5
     Ella vio una adecuada reacción
           B5
y arrastró al vendedor
           D#5
dentro del probador

E5   D#5   G#5
                        Sin perder tiempo
E5   D#5   G#5
                        aprovecharon,
E5   D#5   G#5
                        la hicieron corta
E5   D#5   G#5
                       y se borraron

Intro x2

Punteo de Guitarra 1  (1):

|----------------------------------------------------------|
|-----7-------7------7--------7--------5-----5-----4-----4-|
|----------------------------------------------------------|
|--6-----6-------6------6-----------6-----6------6----6----|
|----------------------------------------------------------|
|----------------------------------------------------------|


G#5
     Entró al probador

     y agarró la minifalda
(1)
    luego la calzó

    y después giró la espalda

(1) (la 2da guitarra rasga aca continuamente en G#5)

    Llamó al vendedor,

    quiso que le dé un consejo:
(1)
    quería saber

    si el cuero era viejo!!!!!!!


Guit 2   G#5                    B5         D#5
Guit 1: |-4----2-/4--6----4-/6--7----7-/9--6--|
        |-------------------------------------|
        |-------------------------------------|
        |-------------------------------------|
        |-------------------------------------|
        |-------------------------------------|

Guit 2   G#5                    B5         E5
Guit 1: |-4----2-/4--6----4-/6--7----7-/9--6--|
        |-------------------------------------|
        |-------------------------------------|
        |-------------------------------------|
        |-------------------------------------|
        |-------------------------------------|


Guit 2   C#5           E5           B5         D#5
       |--------------------------------------------------|
       |--------------------------------------------------|
Guit 1 |-6--6---6-/8----------------9---8---6--8-6--------|
       |--------------9--9---9-/11-------------------9-8--|
       |--------------------------------------------------|
       |--------------------------------------------------|


       |--------------------------------------------------|
       |--------------------------------------------------|
Guit 1 |-6--6---6-/8----------------9---8---6--8-6--------|
       |--------------9--9---9-/11-------------------9-8--|
       |--------------------------------------------------|
       |--------------------------------------------------|

       |---------------------------------------|
       |---------------------------------------|
Guit 2 |---------------------------------------|
       |--6--6--6-6----------------------------|
       |--------------9--7-7--6--5--5----------|
       |------------------------------9--7--6--|

C#5                  E5
     El muchacho no pudo pensar,
           B5
     comenzó a transpirar,
             D#5
     se le iba a dar.
C#5                  E5
     Ella vio una adecuada reacción
        B5
y arrastró al vendedor
       D#5
dentro del.....

E5   D#5   G#5
                        Sin perder tiempo
E5   D#5   G#5
                        aprovecharon,
E5   D#5   G#5
                        la hicieron corta
E5   D#5   G#5
                       y se borraron
E5   D#5   G#5
                       y se borraron
E5   D#5   G#5
                       y se borraron
E5   D#5   G#5
                       y se borraron.....
E5   D#5   G#5

Un pedazo de cover, bueh ahi esta si tiene dudas ya saben:
Villalba_rock_89@ y si no, charlamos un rato,
joJOjo!!!!!! Chau chicos suerte!!!!!!!!!!!!
Suggest correction
Give kudos to tab author, rate the tab!
1 2 3 4 5
comments
print report bad tab
guest
You may want to rate the tab now too:
select rating
Wanna post a correction for this tab? Suggest correction