Oops, an error
Loading. Please wait.

Inhuman Condition Tab

version 1
version 1

Whole song

Interactive

829 views 1 this week
no commentswrite comment
1 2 3 4 5
accurate
x 2
add to favorites
launch autoscroll
font size
0
reset
how to read this tab
guitar tuner
Tab Pro tools
  • play this tab
  • loop segment
  • change instrument
  • show fretboard
  • metronome
Autoscroll
slow
fast
+/-
esc
set tempo
stop
_______________________________________________________________________________
-MASSACRE - INHUMAN CONDITION from the "Inhuman Condition" MCD (c) 1992 Earache
-Transcribed by Chris Myhre. Version 1.0 Feb 98
-For questions, corrections, etc email me: cmyhre@nordi.no
-For best print set left:0.27 right:0.27 in your web browser's page setup
-Tuning: one step down (1:D, 2:A, 3:F, 4:C, 5:G, 6:D)
-Notation legend: h = hammer-on; . = palm mute; \ = slide down;
                  / = slide up; ^ = semitone trill; " = tremolopick

  			       * gtr 1: strike chord only 1st/2nd time (pickslide last time)
  play six    ___________________ _____________		   ___________________ _____________
  times thru |  1		 |  2	      x2	  |  1		      |  2	   x2
1>|--------------------------------------------'--------------------------------------------|
2>|--------------------------------------------'--------------------------------------------|
3>|--------------------------------------------'--------------------------------------------|
4>|-------------------------------------------*'-------------------------------------------*|
5>|--------6----------------------------------4'--------4----------------------------------2|
6>|4-4-4-4----4-4-3-3-3-3-3-3-3-3-4-4-3-3-3-3-2'2-2-2-2----2-2-1-1-1-1-1-1-1-1-2-2-1-1-1-1-0|
   . . . .    . . . . . . . . . . . . . . . .   . . . .    . . . . . . . . . . . . . . . .

  riff A1
  (bass inbetween)        x2  riff A2						   x4
  |------------------------|--------------------------------------------------------|
  |------------------------|--------------------------------------------------------|
  |------------------------|--------------------------------------------------------|
  |------------------------|--------------------------------------------------------|
  |6\5--------4\3----2--3--|6\5-----------------------------4\3-------------2---3---|
  |4\3--------2\1----0--1--|4\3-33333333333333333333333333332\1-1111111111110---1---|
				............................    ............

			   _______ ________
  riff B		  |1,3,5,7|2,4,6,8 x8  gtr 1 comes in 2nd time		  x6
  |-----------------------------------------|--------------------------------------|
  |-----------------------------------------|--------------------------------------|
  |-----------------------------------------|--------------------------------------|
  |-----------------------------------------|--------------------------------------|
  |-----------------------------------------|-----------3"-2"---------------3"-1"--|
  |0000000000000000444444443333333311111111-|0"--1"--3"-------3"-0"--1"--3"--------|
   ........................................

						       _____ _____  slide up 3rd time
			       x8 (lead)	      |1-3  |4   x4  riff C
  |-----------------------------|---------------------------------|--------------
  |-----------------------------|---------------------------------|--------------
  |-----------------------------|---------------------------------|--------------
  |-----------------------------|---------------------------------|--------------
  |10\9---------------5"--4"----|----------------------------2----|6-5--6-5--6-5-
  |8-\7-3"--2"----4"------------|4"--5"--2"----4"--5"--0"----0----|4-3--4-3--4-3-
								   .    .    .
   _____________ ___________
  | 1,3,5,7     | 2,4,6,8  x8 (lead)				    x4
  --------------------------|----------------------------------------|---------------'----|
  --------------------------|----------------------------------------|---------------'----|
  --------------------------|----------------------------------------| repeat riff C '----|
  --------------------------|----------------------------------------| then riffs A-B'----|
  -2-2-2-2-2-2-2-2-2-3------|5----5-\3----3-/6----6-\2-2-2-2-2-2-2-2-|---------------'2---|
  -0-0-0-0-0-0-0-0-0-1------|3----3-\1----1-/4----4-\0-0-0-0-0-0-0-0-|---------------'0---|
   . . . . . . . . .				    . . . . . . . .

  lead 1				     x5
  |21t(2)-------------------'----------------'------------------------------------
  |-------------------------'----------------'------17t~~-----17------------------
  |-------------------------'----------------'--------------------15--------------
  |-------------------------'16p14h16p14h16--'16p14------------------------15~~---
  |-------------------------'----------------'--------------------------14--------
  |------------7t(2.5)------'----------------'------------------------------------

 t=use tremolo bar
  -------------------18t------21t--------------------------------------------|
  --------15(ah)~---------------------------------------------------------------|
  -14^---------------------------------------------------------------------------|
  ------------------------------------------------------------------------------|
  ------------------------------------------------------------------------------|
  ------------------------------------------------------------------------------|
comments
We did not receive enough feedback on this tab! Please rate:
print report bad tab
1 2 3 4 5
I want to post or [tab]
guest
You may want to rate the tab now too:
select rating
Please do not post tabs as comments. Select "correction" instead!