Oops, an error
Loading. Please wait.

La Nueva Amenaza Chords

38 views 1 this week
no commentswrite comment
1 2 3 4 5
3 more votes to show rating
add to favorites
×
Save as Personal and add changes to this tab that will be seen only by you. Learn more ›
×
You can save this tab as Personal to edit and correct it or add notes. All changes will be seen only by you. Learn more »
save as personal
new!
launch autoscroll
font size
0
reset
transpose
0
reset
display chords
guitar tuner
Autoscroll
slow
fast
+/-
esc
set tempo
stop
Strumming
There is no strumming pattern for this song yet. and get +5 IQ
Intro

B - B* - D - G   (X2)

B - B* - D - G   (X2)
+
|-----------------------------|
|--9------9-------7-----------|
|---8--8---8--8----6--6--7----|
|-----------------------------|
|-----------------------------|   X2
|-----------------------------|

B                      D
    En los noventa
             G                 B
  Combatieron a Hussein.
                        D      G
  A los vietnamitas
                     B - B* - D - G
  Y a los gays.

B                          D
    A las narcoadictas
                       G               B
  Y hasta a las hijas de Israel
                                       D        G
  Las reemplazó Bin Laden.
                          B - B* - D - G   (X2)
  ¿Y ahora quién?


E / F# / G / B

E      F#-G-B           E-F#- Gm B
Cristianidad      y Mahometania.
           E-F#         G-B
  A A nueva   amenaza
G                           A         E      B
   La bienvenida le damos hoy.

B / F#-G
B-F# / G

E  -  F#  (X3)
+
B - B* - D - G

punteo sobre la base de arriba
|----------------------------------------|
|----------------------------------------|
|----------------------------------------|
|--9----9-8----7------7------------------|
|---9------9-----9------9----10-7-9------|
|------------------10-----10--------7----|

B                         D
    Fue una sorpresa
                     G                   B
    El Oscar para Sidney Poitier.
                          D        B
    A los comunistas,
                          B - B* - D - G
   ¿Y ahora quién?
B                    D
   Antiglobalistas
               G                     B
   Se manifiestan hoy frente
                                             D        G
   A escombros de Woody Allen.
                          B - B* - D - G   (X2)
   ¿Y ahora quién?


E                      F# - E
    Nuevo líder hay,
                           F# - G
  Niebla en Disneyland.
                A-G                       A
  Su política        es de cerámica.
E                      F# - E
  Nuevo líder hay,
                           F# - G
  Tiembla Disneyland.
                             A-G                       A       B
  Ni Elvis ni Superman       nos defenderán.

BASE FINAL SOBRE ( B )

|-----------------------|
|-----------------------|
|-----------------------|
|--6-----8----6---------|
|----7-6--------7-6-----|   X 2
|-------------------7---|

|-----------------------|
|--9-----11---9---------|
|----9-8--------9-8-----|
|-------------------9---|
|-----------------------|   x2
|-----------------------|

|--------------------------------------------------------|
|--6---7---9---11---12---14---16-------------------------|
|---6---8---9----11---13---15---16------11----11----11---|
|---------------------------------16------9-9---9-9------|
|--------------------------------------------------------|
|--------------------------------------------------------|

|------------------------------------|
|--6---7---9---11---12---14---16-----|
|---6---8---9----11---13---15---16---|
|---------------------------------16-|
|------------------------------------|
|------------------------------------|

|----------------------------------12---14---16---18---19-|
|--6---7---9---11---12---14---16-----14---16---17---19----|
|---6---8---9----11---13---15---16------------------------|
|---------------------------------------------------------|
|---------------------------------------------------------|
|---------------------------------------------------------|


B - G (X4)

B
........................

B*
0
0
0
8
9
7


Dudas comentarios o sugerencias a
shastra_moksha@
o
Suggest correction
Give kudos to tab author, rate the tab!
1 2 3 4 5
comments
print report bad tab
guest
Wanna post a correction for this tab? Suggest correction