Oops, an error
Loading. Please wait.

La Octava Maravilla Tab

371 views 1 this week
no commentswrite comment
1 2 3 4 5
3 more votes to show rating
add to favorites
launch autoscroll
font size
0
reset
how to read this tab
guitar tuner
×
Best way to learn
"La Octava Maravilla"
Autoscroll
slow
fast
+/-
esc
set tempo
stop
Hola, intenté sacar el solo de esta canción...
Para mi esta bastante bien:


e|--s8-------------------------------------------------------------------|
B|------9----------8------8b(9)---------s9-------s4-----s4---------------|
G|---------10v--------10--------------------8s3------3------3s4--5v------|
D|-----------------------------------------------------------------------|
A|-----------------------------------------------------------------------|
E|-----------------------------------------------------------------------|


e|--s8-------------------------------------------------------------------|
B|------9----------8------8b(9)-----s10--10p8---8--10--11----10--11--13--|
G|---------10v--------10-------------------------------------------------|
D|-----------------------------------------------------------------------|
A|-----------------------------------------------------------------------|
E|-----------------------------------------------------------------------|


e|--6--8--9----8--9--11----9--11--12----11--12--14----12--14--15--|
B|----------------------------------------------------------------|
G|----------------------------------------------------------------|
D|----------------------------------------------------------------|
A|----------------------------------------------------------------|
E|----------------------------------------------------------------|


e|--14--15--17---18s----------------11p9---9p8----------------------------|
B|----------------------11---11p9---------------9-9---9s---------------11-|
G|---------------------------------------------------------13p12----------|
D|----------------------------------------------------------------13------|
A|------------------------------------------------------------------------|
E|------------------------------------------------------------------------|


s: slide
v: vibrato
b: bend
p: pull off


saludos!
Suggest correction
Give kudos to tab author, rate the tab!
1 2 3 4 5
comments
print report bad tab
guest
You may want to rate the tab now too:
select rating
Wanna post a correction for this tab? Suggest correction