Oops, an error
Loading. Please wait.

Madame X Chords

26 views 1 this week
no commentswrite comment
1 2 3 4 5
3 more votes to show rating
add to favorites
launch autoscroll
font size
0
reset
transpose
0
reset
display chords
guitar tuner
×
Best way to learn
"Madame X"
Autoscroll
slow
fast
+/-
esc
set tempo
stop
INTRO G A# F C  X 3


----------------------|--------------------|
----------------------|--------------------|
12-12-12--10--7----|------------------|
------------------10--|--10-8-10-12--------|
----------------------|--------------10----|
----------------------|--------------------|


  G            F                         G A# F C
Fría su sangre ella me quiere ver llorar

  G                   F                       G A# F C
Cuidan su secreto hoy los guardianes de tiempo

   D       C                        D A# F C
Ya no puedo esperar para ver el sol

    G               F              G      C       D        C
Que destruya la magia que nos une hoy

|-------------------------------|
|-5/7-7--5--3-------------------|
|--------------5----------------|
|-------------------------------|
|-------------------------------|
|-------------------------------|


 G            F                         G A# F C
Cuando el manto se cierne te veré danzar

  G            F                         G A# F C
Los pies sobre el marmol y el dibujo astral

 D       C                        D A# F C
Regresa niña y tu sed de maldad


Sabes que te espero ver llegar

Y escapas del frío nocturno, ya no sabes donde

Esclava del cristal tu mundo, tu fuego me atrapa

Y nunca dejarás de arder

Hoy te espero ver llegar

Con el sol entre las piernas

Tu inocencia es maldad

Hoy te espero ver llegar

Hoy te espero ver danzar

Para mi danzar

Hoy te quiero ver danzar más y más


ES MI PRIMER TAB, HASTA AHI CREO QUE LO PUDE SACAR,
 CUALQUIER COSA MI MAIL ES Waliano022@
Suggest correction
Give kudos to tab author, rate the tab!
1 2 3 4 5
comments
print report bad tab
guest
You may want to rate the tab now too:
select rating
Wanna post a correction for this tab? Suggest correction