Oops, an error
Loading. Please wait.

Majestial Tab

65 views 3 this week
no commentswrite comment
1 2 3 4 5
3 more votes to show rating
add to favorites
launch autoscroll
font size
0
reset
how to read this tab
guitar tuner
×
Best way to learn
"Majestial"
Autoscroll
slow
fast
+/-
esc
set tempo
stop
|------------3---------1-----------------|
|-0---0----------------------------------|
|---2----------2---2-----2---------------|
|-------0--------0---------0-------------|
|----------------------------------------|
|----------------------------------------|


  A5                   G5
 there´s gonna be a pain
         F5           A5
 submits makes me down
  A5                     G5
 I´ll find the reason when
         F5                  A5
 my body hits the ground alone
 A5         G5        F5          A5
 we all sung, we are too young(darling)
    G5              F5
 selling it down thru this


|------------3---------1-----------------|
|-0---0----------------------------------|
|---2----------2---2-----2---------------|
|-------0--------0---------0-------------|
|----------------------------------------|
|----------------------------------------|


 A5                   G5
 you've try to be myself
       F5
 paralysing me down
 A5            G5
 and what the bill
        F5
 obnoxiously gives now
A5           G5        F5          A5
 we all sung , we are too young,(darling)
       G5                         F5
 I never screwed it while you stand there alone


|------------3---------1-----------------|
|-0---0----------------------------------|
|---2----------2---2-----2---------------|
|-------0--------0---------0-------------|
|----------------------------------------|
|----------------------------------------|
 please hold me tight
 you're always right
 please hold me tight


     A5         G5
 when nothing bring hope
  F5         G5
 it happen to me
    A5               G5       B5 C5 D5
 when nothing bring hope

 A5         G5        F5
 his father died and left him
 a small farm in New England
 all the long black funeral cars
 left the scene
 looking at the shiny red tractor
 that him and his daddy
 used to sit aside
 the blue fields that
 greased that night
 it was like someone have
 spread butter
 let the ship slide open.

----------------------------------


Aguante massacre!


cualquier duda  desarme50@
Suggest correction
Give kudos to tab author, rate the tab!
1 2 3 4 5
comments
print report bad tab
guest
You may want to rate the tab now too:
select rating
Wanna post a correction for this tab? Suggest correction