Oops, an error
Loading. Please wait.

Plan B Tab

version 1
version 1

Whole song

116 views 1 this week
no commentswrite comment
1 2 3 4 5
3 more votes to show rating
add to favorites
launch autoscroll
font size
0
reset
how to read this tab
guitar tuner
×
Best way to learn
"Plan B"
Autoscroll
slow
fast
+/-
esc
set tempo
stop
|------------------|
|-----------1------|
|-0---1-3--3-3-----|    x10
|------------------| (las dos primeras veces puntea
|------------------|  muy cerca del puente)
|------------------|

C#5          C5    F5          C#5
     Y ya me siento desterrado,
        C5            F5
y nadie cree en mi opinión,
                     C#5
(nadie cree en mi opinión)
     C5         F5                 C#5
Y si solo es el aliento de mi alma
        C5       F5
que alimenta mi calor...

|------------------|
|-----------1------|
|-0---1-3--3-3-----|    x3
|------------------|
|------------------|
|------------------|

...lo que falta es mas tiempo...

|------------------|
|-----------1------|
|-0---1-3--3-3-----|    x3
|------------------|
|------------------|
|------------------|

F5  F5 F5   F5   F5 F5 F5 F5  F5      C#5
tan-to tiem-po y to-do pa-ra vos!!!
           C5              F5
Y si me encuentro hablando solo,
                          C#5
(si me encuentro hablando solo)
        C5             F5
No me importa es mi obsesión,
                         C#5
(no me importa es mi obsesión)
       C5        F5                  C#5
Y si volando redescubro mis heridas,
        C5        F5
Ya no importa mi dolor...

|------------------------------------------------------|
|-6-4--2-/4-/2-----------------------------------------|
|---------------3~-------------------------------12----|
|----------------------------5--8---3---6-6---8--------|
|---------------------3---6----------------------------|
|------------------------------------------------------|

|---------------------------------------------------------|
|---------------------------------------------------------|
|-10~------12~--------------------------------------------|
|-------------------5--1----3-----------------------------|
|---------------------------------1------3-----4---1---3--|
|---------------------------------------------------------|

   F5  F5 F5   F5   F5 F5 F5 F5  F5
...tan-to tiem-po y to-do pa-ra vos!!!

|------------------|
|-----------1------|
|-0---1-3--3-3-----|    x8
|------------------|
|------------------|
|------------------|

C#5          C5       F5             C#5
    Y cuando falta, me haces falta
       C5             F5      C#5
La conciencia, la ilusión.
        C5          D#5                 A#5          C#5
A [ch]A[/ch] conquista de [ch]E[/ch] alma, mi alma, mi alma, yo me voy
         C5        D#5     A#5     C#5
Y al conflicto negación.
         C5    D#5             A#5            C#5
No reces por mí, no hables, no hables por mí
         C5
No reces por mí...

G#5 G#5 G#5 F5

Pruebenla que esta bastante facil y la verdad es que es un
temazo, y ya saben, para preguntas, sugerencias
o si tienen ganas de escribir metanseN a
Villalba_rock_89@ suerte chicos chau!
Suggest correction
Give kudos to tab author, rate the tab!
1 2 3 4 5
comments
print report bad tab
guest
You may want to rate the tab now too:
select rating
Wanna post a correction for this tab? Suggest correction