Oops, an error
Loading. Please wait.

Plan B Tab

version 2
version 2

Whole song

126 views 3 this week
no commentswrite comment
1 2 3 4 5
3 more votes to show rating
add to favorites
×
Save as Personal and add changes to this tab that will be seen only by you. Learn more ›
×
You can save this tab as Personal to edit and correct it or add notes. All changes will be seen only by you. Learn more »
save as personal
new!
launch autoscroll
font size
0
reset
how to read this tab
guitar tuner
Autoscroll
slow
fast
+/-
esc
set tempo
stop
·Afinación: Eb Ab Db Gb Bb eb (un semitono abajo)
·Nivel: Intermedio

RIFF PRINCIPAL/INTRO:
eb|----------
Bb|4444-44444
Gb|3333-33353
Db|5566------
Ab|----------
Eb|----------
[repite varias veces]

Versos:                           [rápido]    [rápido]
eb|--------------------------------x(11111)----(11111)--
Bb|--------------------------------x(11111)----(11111)x-
Gb|---------------------------------------------------x-
Db|6-6-6-6-6-6-5-5-5-5-5-5-5-5-3--3--------3--3-------x-
Ab|4-4-4-4-4-4-3-3-3-3-3-3-3-3-3--3--------3--3-------x-
Eb|----------------------------1--1--------1--1---------
    'Y ya me siento,          des-te-rra-do'
//repite lo mismo en todos los versos y el puente//

______________________________________________________________

(1:35) Break:
 Guitarra 1:
eb|--------------
Bb|--------------
Gb|--------------
Db|3---1---------
Ab|-------3------
Eb|-----------1--
 |
 |Guitarra 2:
eb|--------------
Bb|--------------
Gb|--------------
Db|10--8--5---3--
Ab|8---6--3---3--
Eb|-----------1--

eb|--------------------------
Bb|--------------------------
Gb|--------------------------
Db|-8--8------10--10------3--
Ab|-8--8------10--10------3--
Eb|-6--6...---8---8-...---1--
[repite una vez]

eb|------------------------------
Bb|------------------------------
Gb|------------------------------
Db|-8--8------10-10-------11-11--
Ab|-8--8------10-10-------11-11--
Eb|-6--6------8--8--------9--9---


-------------------------------------
-------------------------------------
-------------------------------------
--8-8----10-(10)-3-3-3------3-3-3----
--8-8----10-(10)-3-3-3------3-3-3----
--6-6----8--(8)--1-1-1...---1-1-1...-
                 'TANTO TIEMPO Y TODO PARA VOS?!'

______________________________________________________________

Hace el Riff princ. varias veces más:
eb|----------
Bb|4444-44444
Gb|3333-33353
Db|5566------
Ab|----------
Eb|----------
[varias veces seguidas]

Al final agrega esto al riff de arriba:
-------66664444
-44444444444444
-555555--------
---------------
---------------
---------------

[una vez y listo]

______________________________________________________________

Final:
'A la conquista de, mi alma, mi alma, mi a-lma... etc...'

eb|--------------------------------
Bb|--------------------------------
Gb|6-666---5-555---/8-888----------
Db|6-666---5-555---/8-888--8-888/10
Ab|4-444---3-333---/6-666--8-888/10
Eb|------------------------6-666/8-
[repite hasta el final]

Esto casi no se escucha, pero se toca encima de lo de arriba:
eb|(16)...--(15)...-------
Bb|--------------(16)...--
Gb|-----------------------
Db|-----------------------
Ab|-----------------------
Eb|-----------------------


Termina con:
eb|--------------
Bb|--------------
Gb|5-5-5-5-------
Db|5-5-5-5---3---
Ab|3-3-3-3---3---
Eb|----------1...

______________________________________________________________

3:10 minutos de la canción, parte lenta:
e|------------------
B|-------4----------
G|0-1------3----2---
D|----------------3-
A|------------------
E|------------------

_____________________________
Por: Sebastián Ara.
MSN Email: 
Suggest correction
Give kudos to tab author, rate the tab!
1 2 3 4 5
comments
print report bad tab
guest
Wanna post a correction for this tab? Suggest correction