Oops, an error
Loading. Please wait.

Poisonous Bite Drum Tab

59 views 1 this week
no commentswrite comment
1 2 3 4 5
please rate
add to favorites
launch autoscroll
font size
0
reset
guitar tuner
Autoscroll
slow
fast
+/-
esc
set tempo
stop
Help us to improve Ultimate-Guitar.com Take our survey!
×
Contributor
Difficulty
advanced
Band:Massacre
Song:Poisonous bite
Album:Poisonous bite
I Wrote this song with my band that is unknown to the public for the period of time.
B1=Bass Drum 1 b2=Bass 2 SN=Snare HH=High hat T1=Tom1 T2=Tom2 T3=Tom 3 Ft1=Floor Tom 1 
Tom 2 C1=Cymbal 1 C2=Cymbal 2 C3=Cymbal 3 C4=Cymbal 4
Intro:
B1-0----------0----------0----------0-0-0-0-0-0-0-0-0-0-0--------------------|
b2-0----------0----------0----------0-0-0-0-0-0-0-0-0-0-0--------------------|
SN--------------------------------------------0-0-0-0-0-0--------------------|
Bridge:
B1-0--0--0--0--0-------------------------------------------------------------|
b2--0--0--0--0--0------------------------------------------------------------|
SN-00-00-00-00-00------------------------------------------------------------|
Drum Solo:
B1-0-00-00-00-00-00-0-0-0-0--0-0-0-0-0-0-0-0-0-0-0-0-0-0-0-0-0-0-0-0-0-0-0-0--|
b2--0--0--0--0--0--0-0-0-0-0--0-0-0-0-0-0-0-0-0-0-0-0-0-0-0-0-0-0-0-0-0-0-00--|
SN---------------------------00000000000000000000000000000000000000000000000--|
T1-000------------------------------------------------------------------------|
T2----000---------------------------------------------------------------------|
T3-------000------------------------------------------------------------------|
Ft1---------000---------------------------------------------------------------|
Ft2------------000------------------------------------------------------------|
C1----------------0-0-0-0-0---------------------------------------------------|
C2-----------------0-0-0-0-0-----------------------------------------------0--|
Verse:
B1-00--00--00--00--00--00--00--00--00--00-00--00-00--00-00--00-00--00-00--000-|
B2---0---0---0---0---0---0---0---0---0---0---0---0---0---0---0---0---0---0-00-|
HH-000-000-000-000-000-00--000-000-000-000-000-000-00--000-000-000-000-000----|
SN---0---0---0---0---0---0---0---0---0---0---0---0---0---0---0---0---0---0000-|
C1-----------------------0---------------------------0----------------------0-|
Pre-Chorus:
B1-0-00-00-00-000--00--00--00--00--00--00--00--00--00---0--0-0-0-0-0-0-0-0-0--|
b2--0--0--0--0---0---0---0---0---0---0---0---0---0---0-0-0--0-0-0-0-0-0-0-0-0-|
HH-------------000-000-000-000-000-000-000-000-000-000------------------------|
SN----------000--0---0---0---0---0---0---0---0---0---0-----000000000000000000-|
T1-000--------------------------------------------------0---------------------|
T2----000------------------------------------------------0--------------------|
T3-------000----------------------------------------------0-------------------|
C1------------0--------------------------------------------0----------------0-|
Chorus:
B1-0-000-000-----------------------------------------------------------------|
b2--0-0-0-0-0--------------------X4------------------------------------------|
SN-000-000-0-----------------------------------------------------------------|
C1----0---0-0----------------------------------------------------------------|
Play Verse
Play Pre-Chorus
Play Chorus
Solo:
B1-00--00--00--00--00--00--00--00--00--00-00--00-00--00-00--00-00--00-00--000-|
B2---0---0---0---0---0---0---0---0---0---0---0---0---0---0---0---0---0---0-00-|
HH-000-000-000-000-000-00--000-000-000-000-000-000-00--000-000-000-000-000----|
SN---0---0---0---0---0---0---0---0---0---0---0---0---0---0---0---0---0---0000-|
C1-----------------------0---------------------------0----------------------0-|
Play Chorus
Play Verse
End:
B1-0----------0----------0----------0-0-0-0-0-0-0-0-0-0-0-0-0-0-0------------|
b2-0----------0----------0----------0-0-0-0-0-0-0-0-0-0-0-0-0-0-0------------|
SN------------------------------------------------0-0-0-0-0-0-0-0-0----------|
C1----------------------------------------------------------------0----------|
Suggest correction new What's this?
You can suggest a correction to this tab. Community and Mods will review your correction and vote to approve or reject it.
comments
We did not receive enough feedback on this tab! Please rate:
print report bad tab
1 2 3 4 5
guest
You may want to rate the tab now too:
select rating
Please do not post tabs as comments. Select "correction" instead!