Oops, an error
Loading. Please wait.

Raining Fire Drum Tab

62 views 1 this week
no commentswrite comment
1 2 3 4 5
please rate
add to favorites
launch autoscroll
font size
0
reset
guitar tuner
Autoscroll
slow
fast
+/-
esc
set tempo
stop
Help us to improve Ultimate-Guitar.com Take our survey!
×
Author
Difficulty
advanced
Band:Massacre
Song:Raining Fire
Album:Raining Fire
Our original drummer Jamell wrote this tab
Do not copy this tab
Our Band is unknown for now because we started less than a year ago
B1=bass pedal 1 flat B2=bass pedal 2 sharp sn=snare hh=high hat t1=tom 1 t2=tom 2 t3=tom 
ft1=floor tom1 ft2= floor tom 2 c1=symbol 1 c2=cymbol 2 c3=symbol 3 c4=symbol 4

Intro:
B1-0-0-0-0-------0-0-0-0--------0-0-0-0-------0-0-0-0-------------|
B2--------0-0-0-00-0-0-0-0-0-0-0-------0-0-0-00-0-0-0-0-0-0-0-0---|
HH----------------------------------------------------------------|
Sn----------------------------------------------00000000000000000-|
C1--------------------------------------------------------------0-|

Verse part 1
B1-0-0-0-0--------0-0-0-0-0----------0----0-0-0-0-0-0-------------------------|
B2---------0-0-0-00-0-0-0-0-0-0-0-0--0---0-0-0-0-0--0-------------------------|
HH-000-0-0-0-0-0-0-0-0-0-0-0-0-0-0-0--X10-------------------------------------|
SN---0-------0-------0-------0-------0--------------0-------------------------|
c1-----------------------------------0--------------0-------------------------|
t1---------------------------------------00-----------------------------------|
t2-----------------------------------------00---------------------------------|
t3-------------------------------------------00-------------------------------|
ft1--------------------------------------------00-----------------------------|
ft2----------------------------------------------00---------------------------|

Verse part 2
B1-0-0-0-0-------0-0-0-0------------0-0-0-0-------0-0-0-0-0-0-0-0---0-|
B2--------0-0-0-00-0-0-0-0-0-0-0-X3--------0-0-0-00-0-0-0-0-0-0-0---0-|
Sn-----------------------------------------00000000000000000000000--0-|
C1------------------------------------------------------------------0-|

Chorus
B1-0-0-0-0-------0-0-0-0-0--------0-0-0-0-------0-0-0-0----------------------|
B2--------0-0-0-00-0-0-0-0-0-0-0-0-------0-0-0-00-0-0-0-0-0-0-0--------------|
HH-000-0-0-0-0-0-0-0-0-0-0-0-0-0-0-0-0-0-0-0-0-------------------------------|
SN---0-------0-------0-------0-------0-------000000000000000000--------------|

Bridge
B1--------00000-00000-00000-------00000-00000--------------------------------|
B2--00000-00000-------00000-00000-00000-------00000--------------------------|
SN-0-----0-----0-----0-----0-----0-----0-----0-------------------------------|
C1--00000-00000-------------00000-00000-------00000--------------------------|
C2--00000-------------00000-00000-------------00000--------------------------|
C3--------00000-00000-00000-------00000-00000--------------------------------|
C4--------------00000-------------------00000--------------------------------|

Play verse part 1
Play verse part 2
Solo
B1-------------------------------------------0-0-0-0-0-----------------------|
B2-0-----0---0---0---00---------------------0-0-0-0-0------------------------|
HH-000-0-0-0-0-0-0-0-00-play until solo ends---------------------------------|
SN---0-------0-------000------------------------------0----------------------|
C1---------------------0------------------------------0----------------------|
T1------------------------------------------00-------------------------------|
T2--------------------------------------------00-----------------------------|
T3----------------------------------------------00---------------------------|
Ft1-----------------------------------------------00-------------------------|
Ft2-------------------------------------------------00-----------------------|
Play Verse Part 2 until song ends
Suggest correction
Give kudos to tab author, rate the tab!
1 2 3 4 5
comments
print report bad tab
guest
You may want to rate the tab now too:
select rating
Wanna post a correction for this tab? Suggest correction