Oops, an error
Loading. Please wait.

Sembrar, Sembrar Tab

46 views 1 this week
no commentswrite comment
1 2 3 4 5
3 more votes to show rating
add to favorites
launch autoscroll
font size
0
reset
how to read this tab
guitar tuner
Autoscroll
slow
fast
+/-
esc
set tempo
stop
Intro:


Riff
|--------------------------------|
|--5---5---5---5---5---5---5-7---|
|--6---6---6---6---6---6---6-6---|
|--6---6---6---6---6---6---6-6---|
|--------------------------------|
|--------------------------------|

|--0---0---0---0---0---0---0-2---|
|--2---2---2---2---2---2---2-2---|
|--2---2---2---2---2---2---2-2---|
|--2---2---2---2---2---2---2-2---|
|--------------------------------|
|--------------------------------|


F#5 D5 A5   F#5


Riff
Cómo salir, cómo escapar
                    F#5 D5
Cómo seguir sin sofocar
   A5
El llanto.

Riff
Tu carta está jugada
                F#5    D5
Y tiene un alto precio,
   A5
Me niego a compartir el premio.

B5    G5  F#5  A5   A#5  B5 G5  F#5  A5    E5
   Ah...Ah...Ah...Ah...

F#5

(Esta parte q sigue se puede tocar igual q la intro y suena bien,
pero la forma correcta es asi...  :     )

|--------------------------------|
|--5---5---5---5---5---5---5-7---|
|--6---6---6---6---6---6---6-6---|
|--6---6---6---6---6---6---6-6---|
|--------------------------------|
|--------------------------------|

A5

C#m D#5 A5     F#5

____________________________________________

Riff                       F#5
Otra vez, reniegas de tu huella,
     D5          A5
Traicionas tu inocencia,
Riff                       F#5
Al no ver, que dejas sin memoria,
    D5             A5
Los campos que tu madre cosechó.

B5      G5
  Enola Gay,
   F#5              A5
No cuentes con mis manos para
   B5   G5
Hacer caer
   F#5           A5          B5
El bosque que de verde se llenó
 G5      F#5            A5         B5
Ayer. Tu vientre no se llevará mi piel.


G5  F#5


     |------------------------------------------|
     |------------------------------------------|
     |------------4---------4--------4-------4--| F#5   x3
     |------2--4-------4----------4------4------|
     |------------------------------------------|
     |------------------------------------------|

E5 D#5 D5          F#5

Riff

     |--------7--9--7---------------------------|
     |--5------------------5--7--5-----5--7--5--|
     |------------------------------------------|
     |------------------------------------------|<
     |------------------------------------------|
     |------------------------------------------|
                                        Estas partes va con mucho wha wha
     |--7---7/9----9------------7---7---7/9-----|  /
     |------------------------------------------| /
     |------------------------------------------|<
     |------------------------------------------|
     |------------------------------------------|
     |------------------------------------------|

Riff                             F#5
Otra vez, puedo nadar hacia otro puerto,
           D5          A5
Hacia otro mar, otro lugar.
F#5        D5         A5
   Nuestro sueño nada más
F#5       D5  A5
   Mil parajes a sembrar

B5

B5      G5
  Enola Gay,
   F#5              A5
No cuentes con mis manos para
   B5   G5
Hacer caer
   F#5           A5          B5
El bosque que de verde se llenó
 G5      F#5           A5         B5
Ayer. Tu vientre no se llevará mi piel.
G#5   G5             E5        B5
   Tu vientre no se llevará mi piel.
G#5   G5             E5
   Tu vientre no se llevará...

B5

ahi la tienen...y ya lo saben, para preguntas, sugerencias o
cualquier otra cosa, metanseN a Villalba_rock_89@
y si andan un poco aburridos charlamos un rato, jajaja
chau chicos suerte!!!!!!!
Suggest correction
Give kudos to tab author, rate the tab!
1 2 3 4 5
comments
print report bad tab
guest
Wanna post a correction for this tab? Suggest correction