Oops, an error
Loading. Please wait.

Sofia La Super Vedette Tab

32 views 3 this week
no commentswrite comment
1 2 3 4 5
3 more votes to show rating
add to favorites
launch autoscroll
font size
0
reset
how to read this tab
guitar tuner
Autoscroll
slow
fast
+/-
esc
set tempo
stop
Help us to improve Ultimate-Guitar.com Take our survey!
×
Arpegio en F11:
|------------------|
|------1-----------|
|-----------3------|   X3
|------------------|
|--3---------------|
|------------------|

|--------------|
|------1-------|
|-----------3--|
|--------------|   ....
|--3-----------|
|--------------|                 Segunda guitarra:

                 |--------------4--4----------4--3----|
                 |------------------------------------|
                 |------------------------------------|
                 |------------------------------------|
                 |------------------------------------|
                 |------------------------------------|

|-------------------|
|-------1-----------|
|------------3------|   X4
|-------------------|
|--3----------------|
|-------------------|

Arpegio en Cadd9:
|--------------------------------------|
|----3----------3-----------3----------|
|-------5----------5----------5--------|
|--5-----------------------------------|
|-------------3---------3----------3---|
|--------------------------------------|

Fm
|----1----|                      |---3b4b3b4b3b4b3b4-|
|---1-----|                      |-------------------|
|--1------|                      |-------------------|
|---------|   Segunda guitarra:  |-------------------|
|---------|                      |-------------------|
|---------|                      |-------------------|

(Arp. en F11)
Frias eran mis noches...
de... verano...
(Arp. Cadd9)    Fm
ti-bias   diria yo

D#5        A#5
     Y de pronto la conozco,
Explosiva como en los posters,
                C5
Asesina como un gato

  C5
 |-------------------------------|
 |-------------------------------|
 |-------------------------------|
 |----5----5-------5---------5---| X2
 |-3----3-3--3---3---3-3-3-3---3-|
 |-------------------------------|

(Arp. Cadd9)               (Arp. F11)
  Mirenla, no cabe en los moldes,
(Arp. Cadd9)                 (Arp. F11)
No, no creerias su forma de andar,
  A#5                   F5
Y hoy por mi se mojan sus labios
(Arp. Cadd9)        (Arp. F11)
  Hacia mi apunta sus bombas hoy
   A#5    F5          G#5
Y hoy por fin me entrego su corazon
D#5       G#5          F5
   Y sus ojos, y sus piernas
       C#5            G#5
las que todo el mundo sueña,
      A#5                  F5
los fusibles vuelan cuando sale en televisión
D#5     G#5         F5           C#5                G#5
   y de pronto la conozco, me fascina el triple del doble
      A#5          F5
me calienta cuando la tengo en la cama
                   D#5
sale en la televisión

            G#5                     C#5
No pueden dormir los vecinos de al lado
           F5               G#5
no tengo futuro no tengo trabajo
       A#5               F5
para Sofia mis dias mis noches y mi amor
D#5          G#5           C#5               F5
   quiero mi vida ya incendiando el cuerpo vibrante de Sofia

G#5   A#5

     F5
y tambien su corazon
                  D#5
que ahora es mi - o!!!!

Solo:
|------------------------------------------------------------|
|------------------------------------------------------------|
|8-------8--10---10-8---8-10--8-8--8--12--12--12--10--10--10-|
|---8--8--8----------8-----------8---------------------------|
|------------------------------------------------------------|
|------------------------------------------------------------|

|-----------------------------------------|
|-----------------------------------------|
|--8-----------8--10----10-8-------8--10--|
|-------8--8----8---------------8---------|
|-----------------------------------------|
|-----------------------------------------|

|-6-6-8p6-8p6-8p6-8p6-8p6-8p6-8p6-8p6-8p6-8p6-8p6-8p6----------------|
|----------------------------------------------------8p6-8p6-8p6-8p6-|
|--------------------------------------------------------------------|
|--------------------------------------------------------------------|
|--------------------------------------------------------------------|
|--------------------------------------------------------------------|

|--------------|
|-4h6-4h6-6(1)-|
|--------------|
|--------------|
|--------------|
|--------------|


(entre paréntesis la primera guitarra)

 D#5    A#5
(D#5    A#5        G5   G#5 )

 D#5    A#5
(D#5    A#5        F#5  G#5)

 D#5    A#5
(G#5    A#5        G5   G#5)

     D#5     A#5                  F#5     G#5
(    |----------------------------10------10-------10--------|
     |11---11-11----11----11-------11-------11-------11------|
     |-------------------------------------------------------|
     |-------------------------------------------------------|
     |-------------------------------------------------------|
     |-------------------------------------------------------|  )

 D#5   A#5
(D#5   A#5           G5   G#5)

Las dos guitarras:

A#5  B5

G#5


D#5?.

GrAciAs!!!!


ahi esta, temon de los killers...para fico que este dia (01/03/08)
ya esta en casa poniendose cada dia mas fuerte para volver al escenario
con sus amigos...y ya lo saben bien, para preguntas, sugerencias o
cualquier otra cosa, metanseN a Villalba_rock_89@
y si andan un poco aburridos charlamos un rato, jajaja
chau chicos suerte!!!!!!!
Suggest correction
Give kudos to tab author, rate the tab!
1 2 3 4 5
comments
print report bad tab
guest
You may want to rate the tab now too:
select rating
Wanna post a correction for this tab? Suggest correction