Oops, an error
Loading. Please wait.

Te Arrepiento Chords

version 2
version 2

Whole song

32 views 3 this week
no commentswrite comment
1 2 3 4 5
3 more votes to show rating
add to favorites
launch autoscroll
font size
0
reset
transpose
0
reset
display chords
guitar tuner
Autoscroll
slow
fast
+/-
esc
set tempo
stop
Help us to improve Ultimate-Guitar.com Take our survey!
×
INTRO

(A#  -  F  -  D#)

B#                  D#
  Jamás pensé encontrarte
                  A# - F
en la casa de la que antes
        D#
te escapabas
B#                   D#
  Creo que voy a quedarme
                      A# - F
con las cosas que finalmente son
         D#
de importancia

F        A#          F#          F
  Descubrí que si hubiera habido algo
             A# - G# - A# (A#)
que pudo ayudar
        F#           F              D#
no tendríamos que haberlo dejado escapar

B#              D#
  Primero asegurate
                     A# - F
de que haya vida en Marte
        D#
cuando vayas
B#               D#
  No pienso dedicarte
                  A# -  F
un segundo, ni mirarte caer
      D#
en picada

F        A#          F#          F
  Descubrí que si hubiera habido algo
             A# - G# - A# (A#)
que pudo ayudar
        F#           F              D#
no tendríamos que haberlo dejado escapar

BASE DEL SOLO IGUAL A ESTROFA
(B# / D# / A# - F / D#   X 2

SOLO WAH WAH
|-------------------------------------------------------------|
|-------------------------------------------------------------|
|-------10-10/8-8-7-------10-10-10-8-7----7--------7----------|
|-/10-10-----------8/10-10------------8-10-10-10-10-8-8-8/10--|
|-------------------------------------------------------------|
|-------------------------------------------------------------|

|-------------------------------------------------------------|
|-------------------------------------------------------------|
|----10-10/8-8-7-------10-10-10-8-7----7--------7-------------|
|-/10-----------8/10-10------------8-10-10-10-10-8------------|
|-------------------------------------------------------------|
|-------------------------------------------------------------|


                   F       A#
                    descubriii...
|-------------------------------------------------------------|
|-----------9-11-11/13 / 14 / 11------------------------------|
|------7-10---------------------------------------------------|
|----8--------------------------------------------------------|
|-------------------------------------------------------------|
|-------------------------------------------------------------|

             F#           F
... que si hubiera habido algo
         A# - G# - A# (A#)
que ayudara
        F#           F              D#  -  D#(a)
no tendríamos que haberlo dejado escapar

       F#-G#                 D#     (3ER CUERDA)
Y espera...ar resulta tan difícil    -6-8-8^8^8^-8-6
       F#-G#                 D#     (3ER CUERDA)
Y espera...ar resulta tan difícil    -6-8-8^8^8^-8-6
      F#               G#            D#  (3ER CUERDA)
Descubrí que a vos te falta, a mi ya no   -6-8-8^8^8^-8-6
      F#               G#            D#  (3ER CUERDA)
Descubrí que a vos te falta, a mi ya no   -6-8-8^8^8^-8-6
      F#               G#          D#     (3ER CUERDA)
Descubrí que a vos te falta, a mi noooo  -6-8-8^8^8^-8-6
      F#               G#            D#  (3ER CUERDA)
Descubrí que a vos te falta, a mi ya no   -6-8-8^8^8^-8-6

BASE FINAL
(F# / G# / D#) X 2  +  D#

PUNTEO SOBRE BASE FINAL

|-------------------------------------------------------------|
|--/11-9----9-------------------------------------------------|
|--------10---10-8/10-8-6---------6-8-8^8^8^-8-6--------------|
|-------------------------8-8-8-6-----------------------------|
|-------------------------------------------------------------|
|-------------------------------------------------------------|


|-------------------------------------------------------------|
|--/11-9----9-------------------------------------------------|
|--------10---10-8/10-8-6-------------------------------------|
|-------------------------8-----/10 / 6 /8-8------------------|
|-------------------------------------------------------------|
|-------------------------------------------------------------|


GRACIAS !!!!!!

----------
D#(a)
 6
 6
 10
 8
 6
 6

espero q les haya servido y como por ahi dijo un amigo
copensen y pongas mas tabs de massacre
yo prometo ponerle las pilas

un beso locattis !!!!

y nos vemos en algun pogo hardcore!!!!

se me cuidan y ya saben
correcciones o demases a

shastra_moksha@
o


UN BESO !!!!!
Suggest correction
Give kudos to tab author, rate the tab!
1 2 3 4 5
comments
print report bad tab
guest
You may want to rate the tab now too:
select rating
Wanna post a correction for this tab? Suggest correction