Oops, an error
Loading. Please wait.

La, La, La Tab

by Massiel
152 views 6 this week
no commentswrite comment
1 2 3 4 5
3 more votes to show rating
add to favorites
launch autoscroll
font size
0
reset
how to read this tab
guitar tuner
×
Best way to learn
"La, La, La"
Autoscroll
slow
fast
+/-
esc
set tempo
stop
 C       G       Dm      F
La, lalala, lalala, lalala
 C       Am      F   Em
La, lalala, lalala, la
 C       G       Dm      F
La, lalala, lalala, lalala
 C       Am Dm   C
La, lalala, lalala

 Cm
|----------|
|------4---|
|-----5-5--|
|----5---5-|
|-3-3------|
|--3-------|
 Cm         Bb         Ab   G     Cm
|----------|------1---|----------|----------|
|------4---|-----3-3--|----------|------4---|
|-----5-5--|----3---3-|---5---4--|-----5-5--| X2
|----5---5-|-3-3------|--6-6-5-5-|----5---5-|
|-3-3------|--1-------|----------|-3-3------|
|--3-------|----------|-4---3----|--3-------|
Yo canto a la mañana que ve mi juventud
Y al sol que día a día nos trae nueva inquietud
Ab         Bb
Todo en la vida es
Ab          Bb
Como una canción
Cm                Bb
Que cantan cuando naces
       G     Cm
Y también en el adios
 C       G       Dm      F
La, lalala, lalala, lalala
 C       Am      F   Em
La, lalala, lalala, la
 C       G       Dm      F
La, lalala, lalala, lalala
 C       Am Dm   C
La, lalala, lalala

 Cm
|----------|
|------4---|
|-----5-5--|
|----5---5-|
|-3-3------|
|--3-------|
 Cm         Bb         Ab   G     Cm
|----------|------1---|----------|----------|
|------4---|-----3-3--|----------|------4---|
|-----5-5--|----3---3-|---5---4--|-----5-5--| X2
|----5---5-|-3-3------|--6-6-5-5-|----5---5-|
|-3-3------|--1-------|----------|-3-3------|
|--3-------|----------|-4---3----|--3-------|
Le canto a mi madre que dio vida a mi ser
Le canto a la tierra que me ha visto crecer
Ab          Bb
Y canto al día en que
Ab         Bb
Sentí el amor
Cm             Bb
Andando por la vida
     Ab    G     Cm
Aprendí esta canción
 C       G       Dm      F
La, lalala, lalala, lalala
 C       Am      F   Em
La, lalala, lalala, la
 C       G       Dm      F
La, lalala, lalala, lalala
 C       Am Dm   C
La, lalala, lalala

 D       A       Em      G
La, lalala, lalala, lalala
 D       Bm      G   F#m
La, lalala, lalala, la
 D       A       Em      G
La, lalala, lalala, lalala
 D       Bm F#m  D
La, lalala, lalala


y para los chikilicuatricos...

MASSIEL ganó limpiamente, eso solo era un truco de publicidad para que
el documental tuviese audiencia
Suggest correction
Give kudos to tab author, rate the tab!
1 2 3 4 5
comments
print report bad tab
guest
You may want to rate the tab now too:
select rating
Wanna post a correction for this tab? Suggest correction