Oops, an error
Loading. Please wait.

Be Thankful For What You've Got Bass Tab

1,781 views 12 this week
3 commentsread comments
1 2 3 4 5
x 3
add to favorites
launch autoscroll
font size
0
reset
guitar tuner
Autoscroll
slow
fast
+/-
esc
set tempo
stop
Help us to improve Ultimate-Guitar.com Take our survey!
×
Author
A great cover of the William Devaughn tune,
The Massive Attack bassline has been simplified
compared to the original track which has a lot of improvisation in it.
I recommended you check that version out if you haven't heard it already!
 
Intro

G|----------------------------------------------------------------------|
D|--4-4------4-4------4-4------4---3---2-2------2-2----2----------------|
A|------4--4-----4--4-----4--4---4---4-----2--2------2---2--2--2-3--3-4-|
E|---------------------------------------------------------0------------|

G|----------------------------------------------------------------------|
D|--2-3-4-4------4-4------4-4------4---3---2-2------2-2----2------------|
A|----------4--4-----4--4-----4--4---4---4-----2--2------2--------------|
E|----------------------------------------------------------------------|

                                                     "Though you may not..."

The bass pauses at 0:19's and you hear the first lyric,
The bassline resumes at 0:21's and you basically repeat the riff throughout
remainder of the song.

Main Riff (pretty much the same)
  
G|----------------------------------------------------------------------|
D|--4-4------4-4------4-4------4---3---2-2------2-2----2----------------|
A|------4--4-----4--4-----4--4---4---4-----2--2------2---2--2--2-3--3-4-|
E|---------------------------------------------------------0------------|

G|-----------------------------------------------------------------------|
D|--2-3-4-4------4-4------4-4------4---3---2-2------2-2----2-------------|
A|----------4--4-----4--4-----4--4---4---4-----2--2------2---2---2-3--3-4|
E|-------------------------------------------------------------0---------|

G|----------|
D|--2-3-4-4-|    At this point you return to the start and just play
A|----------|    it over and over!
E|----------|

Enjoy
Suggest correction
Give kudos to tab author, rate the tab!
1 2 3 4 5
comments
print report bad tab
3 comments total.
0 reply
Neroly 42 May 11, 2014 07:19 AM

Thank you so much for this tab ! :-)

0 reply
cgrock 10 Aug 07, 2015 01:48 AM

Lack of formatting. it could have been structured better with intro then verse then chorus or in a more complete form a lot of the song was left out

0 reply
cgrock 10 Aug 07, 2015 01:49 AM

Lack of formatting. Lack of accuracy. Tab incomplete. it could have been structured better with intro then verse then chorus or in a more complete form a lot of the song was left out

guest
You may want to rate the tab now too:
select rating
Wanna post a correction for this tab? Suggest correction