Oops, an error
Loading. Please wait.

Paradise Circus Bass Tab

version 1
version 1

Whole song

8,447 views 24 this week
no commentswrite comment
1 2 3 4 5
x 9
add to favorites
launch autoscroll
font size
0
reset
guitar tuner
Autoscroll
slow
fast
+/-
esc
set tempo
stop
Help us to improve Ultimate-Guitar.com Take our survey!
×
Author
Difficulty
novice
Start at 1:12
G|------------|
D|------------|
A|--8-8-8-8---| X3
E|------------|
 
G|-------------|
D|-------------|
A|-------------|
E|--1-1-1-1-1--|

G|------------|
D|------------|
A|--8-8-8-8---|
E|------------|

G|-------------|
D|-------------|
A|-------------|
E|--1-1-1-1-1--|
   
[Solo] (X2)
G|------------------------------------------------|
D|-----------6-6-6-6-6----------------------------|
A|-8-8-8-8-8-----------6-6-6-6-6-3-3-3-3-3-3-3-3--|
E|------------------------------------------------|

G|---------------------------------------------|
D|---------------------------------------------|
A|-8-8-8-8-8---------------------3-3-3-3-7-7---|
E|-----------4-4-4-4-4-4-4-4-4-4----------8----|
Suggest correction
comments
print report bad tab
guest
You may want to rate the tab now too:
select rating
Wanna post a correction for this tab? Suggest correction