Oops, an error
Loading. Please wait.

Teardrop Tab

version 1
version 1

Whole song

Interactive

133,274 views 228 this week
6 commentsread comments
1 2 3 4 5
accurate
x 11
add to favorites
launch autoscroll
font size
0
reset
how to read this tab
guitar tuner
Autoscroll
slow
fast
+/-
esc
set tempo
stop
Help us to improve Ultimate-Guitar.com Take our survey!
×
Chord Definitions

Intro   VERSES                  CHORUS

Asus    A       Cadd9*  G       F*      G*

E-0--   -0--    -3--    -3--    -0--    -0--|
B-3--   -3--    -3--    -3--    -0--    -0--|
G-2--   -3--    -5--    -4--    -2--    -4--|
D----   -3--    -5--    -5--    -3--    -5--|
A-0--   -0--    -3--    -5--    -3--    -5--|
E----   -0--    -3--    -3--    -0--    -0--|

*These are variations on the standard chords.

---------------------------------------------


[Intro] (Just pluck the strings on an Asus chord)

E------------0------------------0-----|
B----------------3-------3------------|
G--------2-----------2-------2--------|
D-------------------------------------|
A----0--------------------------------|
E-------------------------------------|

(let the open A note ring for the entire measure)

E------------0------------------------|
B----------------3-------3------------|
G--------2-----------2-------2---2----|
D-------------------------------------|
A----0--------------------------------|
E-------------------------------------|

For the most part it seems, this melody is played
in the background during the verses.


[Verse] (1)

A                     Cadd9
(love) love is a verb love is a doing word
G                A
feathers on my breath
A                Cadd9
gentle impulsion shakes me makes me lighter
G                A
feathers on my breath


[Chorus]

F*
teardrop on the fire
G*               A
feathers on my breath


[Verse] (2)

A                      Cadd9
in the night of matter black flowers blossom
G                A
feathers on my breath
F*
black flowers blossom
G*               A
feathers on my breath


[Chorus]

F*
teardrop on the fire
G*               A
feathers on my breath


[Verse] (3)

A               cadd9
water is my eye most faithful my love
G                A
feathers on my breath
A                    Cadd9
teardrop on the fire of a confession
G                A
feathers on my breath
F*
most faithful my love
G*               A
feathers on my breath


[Chorus]

F*
teardrop on the fire
G*                A
feathers on my breath


[Interlude]

A F* G*

F* G* A

F*               G*
stumbling a little
G*               A...
stumbling a little...


[Outro] same as INTRO

 
Suggest correction
comments
print report bad tab
6 comments total. Showing first comments.
+2 reply
h3llang3l 40 wrote on April 16 2006, 09:20 am

gr8 tabbing m8, works really well on an acousitc guitar. spot on!!!

+1 reply
bustareima 10 wrote on November 22 2006, 12:04 am

The intro needs to be:
e|-------0--------------0--------0---------------------------|
b|-------------3-----3----------------3-----3----------------|
g|-----2----2-----2-----------2----2-----2-----2-------------|
d|-----------------------------------------------------------|
a|--0---------------------0----------------------------------|
E|-----------------------------------------------------------|


In the verse: the cadd9 is supposed to be a G and the G is supposed to be a Dsus2. As for the rest of the song it is correct.

+1 reply
el_jedo 20 wrote on January 16 2007, 12:00 am

Yeah bustareima has got the right idea. but the rest sounds good as

guest
You may want to rate the tab now too:
select rating
Please do not post tabs as comments. Select "correction" instead!