Oops, an error
Loading. Please wait.

Apodado Hijo Del Diablo Tab

59 views 1 this week
no commentswrite comment
1 2 3 4 5
3 more votes to show rating
add to favorites
×
Save as Personal and add changes to this tab that will be seen only by you. Learn more ›
×
You can save this tab as Personal to edit and correct it or add notes. All changes will be seen only by you. Learn more »
save as personal
new!
launch autoscroll
font size
0
reset
how to read this tab
guitar tuner
Autoscroll
slow
fast
+/-
esc
set tempo
stop
Riff 1 (base que canta)
1)-------------------------------------------------------------------------------
2)-------------------------------------------------------------------------------
3)-------------5---7----------------------------------5---7----------------------
4)-7-----------3-5-5-7------------------3-7-----------3-5-5-7--------------------
5)-555555555555--3---55555555------0^3^5--555555555555--3---55555555-8-----10----
6)----------------------------0^6^8----------------------------------66666-88888-
PM  ...........       .......              ...........       .......  ....  ....


Riff 2(estribillo)
1)----------------------------------
2)----------------------------------
3)----------------------------------
4)-7----5---------------------------
5)-5----3------------5------8-10----
6)----00--^'^'^'^'^'^3---00-6-8-----  x2  
PM    ..                 ..

Riff 1 y Riff 2 


Solo				      |x2
1)------------------------------------|
2)------------------------------------|
3)------------------------------------|
4)----7--7----7--7----3--3----5--5----|
5)----55555555555555551111111133333333|
6)------------------------------------|
PM     .. .... .. .... .. .... .. .... 


1)----------------------------------------------------------
2)----------------------------------------------------------
3)------------------------------------------------------5-7-
4)----7--7----7--7----10--10----10--10------------5-7-8-----
5)----55555555555555558-888-88888-888-8888--5-7-8-----------
6)------------------------------------------------------5-7-
PM     .. .... .. ....  ..  ....  ..  ....


1)---------------------------------------------------------------------------------------
2)---------------------------------------------------------------------------------------
3)---------------------------------------------------------10------------------------5-7-
4)-7--7-------3--3--------------------------2-3-7--7-------888888-10-----------5-7-8-----
5)-555555-5-8-111111-1-3-3--3---------1-3-5-----555555-5-8--------888888-5-7-8-----------
6)-----------------------111111-1-3-5----------------------------------------------------
PM  .. ..    .. ..    .. .. . . . . . . . .  .. ..    .....  ..... . . . . . . . . 

Riff 1, Riff 2, riff1 con solo y termina.
Suggest correction
Give kudos to tab author, rate the tab!
1 2 3 4 5
comments
print report bad tab
guest
Wanna post a correction for this tab? Suggest correction