Oops, an error
Loading. Please wait.

Cuando El Sol Crucifique Mi Nombre Tab

34 views 1 this week
no commentswrite comment
1 2 3 4 5
3 more votes to show rating
add to favorites
launch autoscroll
font size
0
reset
how to read this tab
guitar tuner
Autoscroll
slow
fast
+/-
esc
set tempo
stop
Help us to improve Ultimate-Guitar.com Take our survey!
×
3)---------------------------------------------------------------5-4---------
4)-3-3-3-3-------0-0-3-3-3-3-----------3-3-3-3-------0-0-3-3-3-3-3-2-5-4-----
5)-3-3-3-3------4-4--3-3-3-3-----------3-3-3-3------4-4--3-3-3-3-----3-2-5-4-
6)-1-1-1-1-0000------1-1-1-1-0000-4444-1-1-1-1-0000------1-1-1-1---------3-2-
PM         ....              .... ....         ....

3)-------------------------
4)-2--------3-2---3-32-----
5)-0-2-3----3-0-2-1---32---
6)---0-1-134----0----------
PM       ...        ....

2)-------------0-0-0-0---------------0-0-0-0------
3)--5-5-5-5---5-5-5-5-----5-5-5-5---3-3-3-3-------
4)-7-7-7-7---------------7-7-7-7------------------

4)--------------------------------------------------------
5)-------2222-3333--------2222-3333-------7-7-------77----
6)-0-1111----------0-1111-----------0-000-----0-000-------
PM   ........ ....   .... .... ....   ...       ...

6)-2--------3-2--------3-2-------3-5---
5)-0-000000-1-0-000000-1-0-00000-1-3---
PM   ......     ......     .....

5)-8\9-9----8\9-9----8----7----5----2----5-7-
6)-6\7-7-00-6\7-7-00-6-00-5-00-3-00-0-00-3-5-
PM       ..       ..   ..   ..   ..   ..

5)-8\9-9----8\9-9----8----7----5----2----5-7-8----7----5----2----5-7-2-
6)-6\7-7-00-6\7-7-00-6-00-5-00-3-00-0-00-3-5-6-00-5-00-3-00-0-00-3-5-0-
PM       ..       ..   ..   ..   ..   ..       ..   ..   ..   ..

3)-------------------------------
4)------3-----------3-3-3--------
5)------1-----------1-1-1-3-3-3--
6)-00------00---00--------1-1-1--
PM ..      ..   ..

3)---5--4------------|x3 ---5--4-------------------
4)---3--2--5--4------|------3--2-------3-3-3-------
5)---------3--2---54-|-----------------1-1-1-3-3-3-
6)-00-00-00-00-00-32-|----00-00--0-1-0-------1-1-1-
PM .. .. .. .. ..         .. ..  . . .

4)------------------------------------0---------------------------------------
5)-----------------------------------4--------------------------------------2-
6)-1111-1-111-1-11-1111-1-111-1-1-11----1111-1-111-1-1-11-1111-1-111-1-1-11-0-
PM .... . ... . .. .... . ... . . ..    .... . ... . . .. .... . ... . . ..
Suggest correction
Give kudos to tab author, rate the tab!
1 2 3 4 5
comments
print report bad tab
guest
You may want to rate the tab now too:
select rating
Wanna post a correction for this tab? Suggest correction