Oops, an error
Loading. Please wait.

Ebola Tab

139 views 1 this week
no commentswrite comment
1 2 3 4 5
3 more votes to show rating
add to favorites
launch autoscroll
font size
0
reset
how to read this tab
guitar tuner
×
Best way to learn
"Ebola"
Autoscroll
slow
fast
+/-
esc
set tempo
stop
Riff 1
4)------------------------------5--------
5)-7-77-7-77-3--------7-77-7-77-33333333-
6)-5-55-5-55-11111111-5-55-5-55----------x6
PM            .......            .......

Riff 2 (estribillo)
5)-2----2-2-2-3--------2----2----3-3-3-2----2-2-2-----3--------2----2----3-3-3-
6)-0-00-0-0-0-11111111-0-00-0-00-1-1-1-0-00-0-0-0-010-11111111-0-00-0-00-1-1-1-
PM   ..   . .  .......   ..   ..         ..       ...  .......   ..   ..     

Riff 1 x1    

Riff 3
5)-7-77-7-77-3--------
6)-5-55-5-55-11111111-  
PM            .......

Riff 2

Riff 4
4)-7---------------7--------23532--
5)-5--7-5---23532--5--7-5-35-----5-
6)---05-3-35-----5---05-3----------x2
PM   .    ........   .    ........

Riff 1 x6, Riff 2, Riff 1 x1, Riff3, Riff 4 x2

Base Solo lento
4)-7-7-7----3-3-5-----3-5`(7)`5^3---
5)-5-5-5-00-1-1-3-3-5-------------5-x6
PM       ..       . . . .

Corte para cambio de base
4)-33-22-22-----
5)-55-33-22-----
6)----------3-0-
PM .. .. .. . .

Riff 1 x4, Riff 2, Riff 3, Riff 1 x6, Riff 2, Riff 3, Riff 4 x2 
cambia el final
la ultima vuelta hace
4)--7--------
5)--5--77-5--
6)----055-3--
PM    ...
Suggest correction
Give kudos to tab author, rate the tab!
1 2 3 4 5
comments
print report bad tab
guest
You may want to rate the tab now too:
select rating
Wanna post a correction for this tab? Suggest correction