Oops, an error
Loading. Please wait.

Escupiendo Rabia Bass Tab

2 views 1 this week
no commentswrite comment
1 2 3 4 5
3 more votes to show rating
add to favorites
launch autoscroll
font size
0
reset
guitar tuner
×
Best way to learn
"Escupiendo Rabia"
Autoscroll
slow
fast
+/-
esc
set tempo
stop
Intro
1)--------------------------------------------------------
2)--------------------------------------------------------
3)--------------------------------------------------------
4)-3-2-2-3-7----3-2-2-3-0----3-2-2-3-7----3-2-2-3---------

RIFF 1 (A)				RIFF 1 (B)
1)-------------------------------	----------------
2)-------------------------------	----------------
3)----------3-5-7----------3-5-7-	----------3-5---
4)-0-000000-------0-000000-------	-0-000000-------

RIFF 2 (A)			RIFF 2 (B)			RIFF 2 (C)
1)-------------------------	-------------------------	------------------------
2)-------------------------	------------7-5----------	----------------------5-
3)-2-222222----------------	-0-000000-0-----7-5------	-0-000000-0-------5-7---
4)----------3-333-2-222----x2	--------------------8-5--	------------5-7-8-------

Canta
RIFF 1 (A) x2, RIFF 1 (B), RIFF 2 (A) x3, RIFF 2 (C)

No canta
RIFF 1 (A), RIFF 1 (B), RIFF 2 (A), RIFF 2 (B) 

Canta
RIFF 1 (A) x2, RIFF 1 (B), RIFF 2 (A) x3, RIFF 2 (C)

No canta
RIFF 1 (A), RIFF 1 (B), RIFF 2 (A), RIFF 2 (B) 

Base de Tapping
1)-------------------------
2)-------------------------
3)-2-----2-----------------
4)----------3----3---------x2

RIFF 3
1)---------------------------------------------
2)---------------------------------------------
3)-2-22-2-222222-2-2-----------------2-4-5-4-0-
4)-------------------3-33-3-33-2-3-5-----------x4

RIFF 4
1)--------------------------------------
2)--------------------------------------
3)--------------------------------------
4)-02-22-3-2-02-222-222-2222------------x4

Base del solo
RIFF 3, RIFF 4, RIFF 3, RIFF 4 termina en 4)--7-- 

Intro.

No canta
RIFF 1 (A), RIFF 1 (B), RIFF 2 (A), RIFF 2 (B) 

Canta
RIFF 1 (A) x2, RIFF 1 (B), RIFF 2 (A) x3, RIFF 2 (C)

Solo final
RIFF 1 (A) x 1 1/2

1)--------------------------------------------------------
2)--------------------------------------------------------
3)--------------------------------------------------------
4)-3-3-3-3-2-2-3-2-00000000-------------------------------
Suggest correction
Give kudos to tab author, rate the tab!
1 2 3 4 5
comments
print report bad tab
guest
You may want to rate the tab now too:
select rating
Wanna post a correction for this tab? Suggest correction