Oops, an error
Loading. Please wait.

Escupiendo Rabia Tab

9 views 1 this week
no commentswrite comment
1 2 3 4 5
3 more votes to show rating
add to favorites
launch autoscroll
font size
0
reset
how to read this tab
guitar tuner
×
Best way to learn
"Escupiendo Rabia"
Autoscroll
slow
fast
+/-
esc
set tempo
stop
intro
4)------------------2------12-12--11-11-11-12-9-------
5)-----5-5--4--44-5-2------10-10--9--9--9--10-9-------
6)-----3-3--2--22-3-0-------------------------7-------

Riff 1
3)------------5---7---9-------
4)-----------5---7---9-9------
5)-2--------3---5---7---------
6)-0-000000-------------------x2
PM   ...... ..  ..  ..

Riff 2 (fin Riff 1)
3)------------5---7-------
4)-----------5---7--------
5)-2--------3---5---------
6)-0-000000---------------
PM   ...... ..  ..

Riff 3
4)-4----------------------
5)-2-222222-5-----4-------
6)----------3-333-2-222---x2
PM   ......   ...   ...

Riff 4 (fin Riff 3)
4)-2--------2---
5)-0-000000-0---
PM   ......

Riff 1 x4 (canta), Riff 2, Riff 3 x3 (canta), Riff 4.
Riff 1 x2, Riff 2, Riff 3 x2, Riff 4.
Riff 1 x4 (canta), Riff 2, Riff 3 x3 (canta), Riff 4.

Cortes con tapping
4)-4----4-----------
5)-2----2----5----5-
6)-----------3----3-x2

Riff 5
1)---------------2-------------------------
2)----------------3------------------------
3)-----------------4-----------------------
4)-4----4-4---------4----------------------
5)-2-22-2-222222------5----5-5------5---5--
6)--------------------3-33-3-333333-3-3-3--x4
PM   ..   ......        ..   ......   .   

Riff 6
5)---4----5-4---4------------------------
6)-0-2222-3-2-0-2222222------------------x4
PM    ...        ......

Solo
Riff 5, Riff 6, Riff 5, Riff 6.
Termina solo y empieza como el principio.

Intro, Riff 1 x2, riff 2, Riff 3x2, Riff 4
Riff 1 x4 (canta), Riff 2, Riff 3 x3 (canta), Riff 4.
Riff 1x4 con solo.

Final
5)-5----44-5-4-2---
6)-3333-22-3-2-0---
PM  ...
Suggest correction
Give kudos to tab author, rate the tab!
1 2 3 4 5
comments
print report bad tab
guest
You may want to rate the tab now too:
select rating
Wanna post a correction for this tab? Suggest correction