Oops, an error
Loading. Please wait.

Holocausto Mental Bass

11 views 1 this week
no commentswrite comment
1 2 3 4 5
3 more votes to show rating
add to favorites
launch autoscroll
font size
0
reset
guitar tuner
×
Best way to learn
"Holocausto Mental"
Autoscroll
slow
fast
+/-
esc
set tempo
stop
1)----------------------------		--------------
2)-----------4-----------2----		--------------
3)-555-444-4---333-222-2------		----------5-4-
4)-------------------------02-		-2--22--2-----

1)-------------------------------------------------------
2)-------------------------------------------------------
3)-------------------------------------------2222--------
4)-1\2222-3^2222-1\2222-3^2222-1\2222-3^2222------3333-2-

RIFF 1
1)-----------------------------------------------------
2)-----------------------------------------------------
3)-------------------------------------------5555-4444-
4)-1\2222-3^2222-1\2222-3^2222-1\2222-3^2222-----------

RIFF 2
1)-----------------------------------------------------
2)-----------------------------------------------------
3)-------------------------------------------2222------
4)-1\2222-3^2222-1\2222-3^2222-1\2222-3^2222------3333-

(RIFF 1, RIFF 2) x2

1)------------------------------------------------
2)------------------------------------------------
3)-22222222-111-4-1-4-2-222222--------------------
4)-----------------------------000-333-555--------x2

1)--------------------------------------------------------------------------------
2)--------------------------------------------------------------------------------
3)--------------------------------------------------------------------------------
4)-2-222-222-222-000-333-555-2-222-222-222-000-333-555-2-222-222--222-000-333-555-

1)------------------------------------------------------------
2)------------------------------------------------------------
3)-2--20--------3-2--2-----0-1-2-20--------3-2-2----0---0-----
4)------321-1-0--------023---------321-1-0-------023-023-023--x2

1)---------	------------------
2)---------	------------------
3)-2-------	------------------
4)---------	-5-5-5-5--5\12\5--

1)-----------------------------------------
2)-----------------------------------------
3)-----------------------------------------
4)-0^7777777-888-0-8-0^7777777-5-5-5-5-8---x2

1)----------------------------------------
2)----------------------------------------
3)-0^7777777-888-0-8-0^7777777-333-55555--
4)----------------------------------------x10

1)--------------------------------------------------------------------------------
2)--------------------------------------------------------------------------------
3)--------------------------------------------------------------------------------
4)-0--3--5--2-222-222-222--0--3--5--2-222-222-222--0--3--5-2-222-222-222--0--3--5-

1)---------------------------------
2)---------------------------------
3)-3-------3-------3-------1-------
4)-----4-------4-------4-------3---x2


1)---------------------	 -------------------  |
2)---------------------	 -------------------  |
3)-33333333------------	 -11111111----------  |
4)---------44444444--x3	 ---------33333333--  |x 6

1)------------------    -------------------------	----------
2)-33333333---------    -------------------------	----------
3)---------44444444-    --1---1-1-1--------------	----------
4)------------------x3  ------------3---3-4-6-8--	-8-8-8-8--
Suggest correction
Give kudos to tab author, rate the tab!
1 2 3 4 5
comments
print report bad tab
guest
You may want to rate the tab now too:
select rating
Wanna post a correction for this tab? Suggest correction