Oops, an error
Loading. Please wait.

Holocausto Mental Tab

29 views 1 this week
no commentswrite comment
1 2 3 4 5
3 more votes to show rating
add to favorites
launch autoscroll
font size
0
reset
how to read this tab
guitar tuner
Autoscroll
slow
fast
+/-
esc
set tempo
stop
Help us to improve Ultimate-Guitar.com Take our survey!
×
intro
3)---------6-----------4-----------
4)-777666--4---555444--2-----------
5)-555444-4----333222-2----4-------
6)-----------0-----------0-2-------
PM ...... .  . ...... .  .    

riff 1 (base antes de cantar) Cuando canta no machaca el 2 tira el tono
4)-----------------------------------------------------
5)------------------------------------------555-444----
6)-1-2222-3-2222-1-2222-3-2222-1-2222-3-2222-----------
PM . .... . .... . .... . .... . .... . ....... ...

4)-----------------------------------------------------
5)-------------------------------------------222-------
6)-1-2222-3-2222-1-2222-3-2222-1-2222-3-2222-----333---
PM . .... . .... . .... . .... . .... . .... ... ...

Estribillo a las chapas

5)-2222-1111-44-11-44-22222222-----------------------
6)------------------------------00-33-55-------------
PM .... .... .. .. .. ........  .. .. ..

Parte marchosa despues de la parte rapida
5)-4-------------------2-5-7-------
6)-2-222--222--222-222-0-3-5-------
PM   ... ...   ... ...

4)-4--------------5-4-4-----2-3-4------------5-4-4----2---2---2---
5)-2---20---3-3---3-2-2-----0-1-2-20----3-3--3-2-2----0---0---0---
6)-------32-1-1-0-------023----------32-1-1-0------023-023-023----
PM     ....     .       ...       .. ..     .      ... ... ...

Queda sonando el acople y el viente
4)-4------------------------------------------------------------------
5)-2-----------------------------------------------------------7777---
6)------------0-7-7--0-8-8--0-7-7--0-5-5--0-7-7--0-8-8--0-7-7--5555---

5)-0^9------(10)0-10--0^9------7777-10-----
6)-0^777777-888-0-8---0^777777-5555-8------
PM    ..... ...          ..... ....

Base del solo

4)-0^9------10--0-10-0^9------5---7-----
5)-0^777777-888-0-8--0^777777-333-555---
PM    ..... ...         .....  ..  ..

Termina el solo y hace
5)-2-5-7-4--------------2-5-7-4--------------2-5-7-4--------------2-5-7-
6)-0-3-5-2-222-222-222--0-3-5-2-222-222-222--0-3-5-2-222-222-222--0-3-5-
PM         ... ... ...          ... ... ...          ... ... ...      

Final 
4)-5-5-565---------5-5-565---------5-5-565---------3-3-343--------------
5)-3-3-----6-------3-3-----6-------3-3-----6-------1-1-----5------------
6)---------4---444---------4---444---------4---444---------3---333------
PM             ...             ...             ...             ...

Despues hace machacando 

corte final
5)-5-6-8-10---
6)-3-4-6-8----
Suggest correction
Give kudos to tab author, rate the tab!
1 2 3 4 5
comments
print report bad tab
guest
You may want to rate the tab now too:
select rating
Wanna post a correction for this tab? Suggest correction