Oops, an error
Loading. Please wait.

Indiferencia Bass

5 views 1 this week
no commentswrite comment
1 2 3 4 5
3 more votes to show rating
add to favorites
launch autoscroll
font size
0
reset
guitar tuner
Autoscroll
slow
fast
+/-
esc
set tempo
stop
1)-------------------------------------------
2)-------------------------------------------
3)-------------------------------------------
4)-77-88-1-----77-88-1-11111111------77-88-1-

RIFF 1
1)---------------------------	  -----
2)---------------------------	  -----
3)---------3-5---------3-----	  -----
4)-0##-4##-----0##-1##---2-1-x4   -0##-

1)---------------------------------------------------------
2)---------------------------------------------------------
3)---------------------3-2---------------------------------
4)-11-33-11-33-11-33-1-----11-33-11-33-11-33-333-55-333-55-

1)-------------------------------------------------------
2)-------------------------------------------------------
3)-------------------3-2---------------------------------
4)-11-33-11-33-11-33-----11-33-11-33-11-33-3333-3-1111-1-

RIFF 1 (solo x2)

1)--------------------------------------------------------
2)----------------------------------------------54-54-54--
3)----------------------------7-777-3-333-5-555---5--5--5-
4)-0-000-3-333-2-222-7-77-777-----------------------------x3

1)----------------------------------------------
2)----------------------------------------------
3)------------------------------------------1-2-
4)-0-000-0-0--0-000-0-000--0-000-0-0--0-000-----x2

1)--------------------------------------
2)------------------------------9-------
3)---------7---------10-----------2-1---
4)-0-000-0---0-000-0----0-000-0-------1-x2

1)---------------------------------------------
2)---------------------------------------------
3)-------------------------------------------3-
4)-0000-6-3-5-0000-3-2-1-0000-6-3-5-0000-3-2---x4

1)----	--------
2)----	--------
3)----	--1-----
4)-0--	-----1--

RIFF 2
1)----------------------------------------------
2)----------------------------------------------
3)--------------------------------------1---1---
4)-00-0000-00-0-000-0-000-00-0000-00-0----0---1-

1)----------------------------------------------
2)----------------------------------------------
3)--------------------------------------1-------
4)-00-0000-00-0-000-0-000-00-0000-00-0----1-----

RIFF 2

1)----
2)----
3)----
4)-0--

1)------------------------------------
2)------------------------------------
3)-3-4-5-----1------1------1----3-----
4)--------00---0000---0000---00---2-1-

1)---------------------------------------------------------
2)---------------------------------------------------------
3)----1------1------1----3-4-5----1------1------1----3-----
4)-00---0000---0000---00-------00---0000---0000---00---2-1-x2

1)---------------------
2)---------------------
3)-----3-4-5-----3-----
4)-0##-------0##---2-1-x2

1)---------------------------------------------------------
2)---------------------------------------------------------
3)----1------1------1----3-4-5----1------1------1----3-----
4)-00---0000---0000---00-------00---0000---0000---00---2-1-x2

1)--------------
2)--------------
3)-1----3-------
4)--------2-1-0-
Suggest correction
Give kudos to tab author, rate the tab!
1 2 3 4 5
comments
print report bad tab
guest
Wanna post a correction for this tab? Suggest correction