Oops, an error
Loading. Please wait.

Indiferencia Tab

19 views 1 this week
no commentswrite comment
1 2 3 4 5
3 more votes to show rating
add to favorites
launch autoscroll
font size
0
reset
how to read this tab
guitar tuner
×
Best way to learn
"Indiferencia"
Autoscroll
slow
fast
+/-
esc
set tempo
stop
intro
5)-99-1010-3--99-1010-3-----------99-1010-3--99-1010-3-
6)-77-8-8--1--77-8-8--1-11111111--77-8-8--1--77-8-8--1-
PM                      ........

Riff 1 Canta
4)----------------------2-4-----------------------
5)-2--------532-6-------3-5-2--------023-3----3---    
6)-00000-320----4444444-----00000-023----11111-21-x4 --000000---
PM  .... ......  ......      .... ......  .......      ......

4)------------------------------5-4-------------------------------------
5)------------------------------3-2---------------------5---7--5---7----
6)--1111-333-1111-333-1111-333-1----1111-333-1111-333-1-333-55-333-55---
PM  .... ... .... ... .... ... .    .... ... .... ... . ... ..

4)-----------------------------5-4---------------------------------
5)-----------------------------3-2-------------------5555-5-3333-3-
6)-1111-333-1111-333-1111-333-1----1111-333-1111-333-3333-3-1111-1-
PM .... ... .... ... .... ... .    .... ... .... ... .... . .... .

Riff 1

Estribillo
4)----------------------9---2---4---4^5^4-4^5^4-4^5^4---
5)-22---5--5---44---9---7---3---5--------5-----5-----5--
6)-00-003--3-0022-007-00--00--00--00--------------------
PM    ..     ..   ..  ..  ..  ..  ..

4)------------------------------------------3-4--
5)------------------------------------------1-2--
6)-0-000-0-0--0-000-0-000--0-000-0-0--0-000------x2
PM . ... . .  . ... . ...  . ... . .  . ...

4)----------------------------------4-3---
5)----------------------------------2-1-3-
6)-0-000-0----0-000-0----0-000-0--------1-x2
PM . ... .    . ... .    . ... .

Base solo
4)-----------------------------------------------5----
5)-2-----8-5-7-2-----5-4-3-2-----8-5-7-2-----5-4-3----
6)-00000-6-3-5-00000-3-2-1-00000-6-3-5-00000-3-2------

PM  ....        ....        ....        ....

Corta
5)-2-
6)-0-

Suena 1 viola y hace
cortes 
4)-3-------------------------------------------3---3-----
5)-1-3-----------------------------------------1-2-1-3---
6)---1-----00-0000-00-0-000-0-000-00-0000-00-0---0---1---
PM         .. .... .. . ... . ... .. .... .. . 

4)-------------------------------------3-----
5)-------------------------------------1-3---
6)-00-0000-00-0-000-0-000-00-0000-00-0---1---
PM .. .... .. . ... . ... .. .... .. .

4)-------------------------------------3---3----
5)-------------------------------------1-2-1-3--
6)-00-0000-00-0-000-0-000-00-0000-00-0---0---1--
PM .. .... .. . ... . ... .. .... .. .

5)-333-2-
6)-111-0-
PM ...

Queda 1 viola y hace cortes
4)-5-6-7-
5)-3-4-5-

Riff 2
4)---3----3----3--------3----3----3--5-6-7---3----3----3-------
5)---1----1----1--3-----1----1----1--3-4-5---1----1----1--3----
6)-00-0000-0000-0--21-00-0000-0000-0-------00-0000-0000-0--21--
PM .. .... .... .     .. .... .... .       .. .... .... .  ..

Canta
4)---------------567------------------
5)---------------345--------------3---
6)-0000000000000-----000000000000--21-x2
PM .............     ............  ..

Riff 2

Final
4)-3-----------
5)-1-----3--2--
6)--------210--
PM        ..
Suggest correction
Give kudos to tab author, rate the tab!
1 2 3 4 5
comments
print report bad tab
guest
You may want to rate the tab now too:
select rating
Wanna post a correction for this tab? Suggest correction