Oops, an error
Loading. Please wait.

La Plegaria Del Obrero Tab

19 views 1 this week
no commentswrite comment
1 2 3 4 5
3 more votes to show rating
add to favorites
×
Save as Personal and add changes to this tab that will be seen only by you. Learn more ›
×
You can save this tab as Personal to edit and correct it or add notes. All changes will be seen only by you. Learn more »
save as personal
new!
launch autoscroll
font size
0
reset
how to read this tab
guitar tuner
Autoscroll
slow
fast
+/-
esc
set tempo
stop
intro
4)---------------9---2--
5)-6-4-4-2-6-7-9-7-9-2--
6)-4-2-2-0-4-5-7---7-0--

Queda una vuelta sola la otra guitarra
5)-8^7------10^7------8^7------8^7-10^7-8^7-8^7--
6)----000000----000000---000000---0----0---------x3
PM    ......    ......   ......   .    .

5)-8^7--------10^7--------8^7--------8^7-10^7-8^7-8^7--
6)----000-0000----000-0000---000-0000---0----0---------x2
PM    ... ....    ... ....   ... ....   .    . 

Riff 1
5)-2----2-3----2----2-5----2----2-3----2----333-222-
6)-0000-0-1111-0000-0-3333-0000-0-1111-0000---------
PM  ...    ...  ...    ...  ...    ...  ... ... ...

5)-2----2-3----2----2-5----2----2-3----2----333-222-333-222-333-222-
6)-0000-0-1111-0000-0-3333-0000-0-1111-0000-------------------------
PM  ...    ...  ...    ...  ...    ...  ... ... ... ... ... ... ...

Corta
5)-2-
6)-0-

Queda bajo solo 2 vuelta, en la segunda canta.

Riff 2 (canta)
5)-2------2------2------2-----3^2^3^2^0-5------5------------------
6)-0-0000-0-0000-0-0000-0-0000----------3-3333-3-3333-5555-33-22--x3
PM   ....   ....   ....   ....            ....   .... .... .. ..

Riff 1 (estribillo)

Corta
5)-2-2-
6)-0-0-

Riff 2 x2 base solo, Riff 2 x2 canta, Riff 1

4)-------4-2-2-2-4---
5)-2-2-2-2-0-0-0-2---
6)-0-0-0-------------x2

4)----------4----------4-
5)----------2-00-00-00-2-
6)-00-00-00--------------x2
PM .. .. ..   .. .. ..

Solo a 2 violas
2)-------------------------------------------12--------10--12-13-
3)----------------------------------9--11-12-----11-12-----------
4)---------9-------7--9-10-9-7-----------------------------------
5)-7--9-10----9-10-------------10-9------------------------------

2)-12^13^12^13^12--10^12^10^12^10--8^10^8^10^8--7^8^7^8^7------x2

4)------------4-----------2------4-5----------------------
5)-2------4-5-2-------4-5-0-0000-2-3-2222-----------------
6)-0-0000-2-3----0000-2-3-----------------5555-3333-2222--
PM   ....        ....       ....     .... .... .... ....

4)------------4-----------2------4-5-----------------------------------------
5)-2------4-5-2-------4-5-0-0000-2-3-2222----------------2222----------------
6)-0-0000-2-3----0000-2-3-----------------5555-3333-2222------5555-3333-2222-
PM   ....        ....       ....     .... .... .... .... .... .... .... ....

  (A)
3)-----------------------------------------------------4^5---
4)---------------------------5-------------------------4^5---
5)---------------------------3-------------------------------
6)-00-000-00-000-00-000-00-0---00-000-00-000-00-000-00-------
PM .. ... .. ... .. ... .. .   .. ... .. ... .. ... ..

  (B)
3)-----------------------------------------------------4^5---
4)---------------------------5-------------------------4^5---
5)---------------------------3-------------------------2^3---
6)-00-000-00-000-00-000-00-0---00-000-00-000-00-000-00-------
PM .. ... .. ... .. ... .. .   .. ... .. ... .. ... ..

Repite (A)(B)x3

4)----------------------5-4-5----------------------------
5)------2------2--------3-2-3------2------2------2----3--
6)-0000-0-0000-0-0000-0-------0000-0-0000-0-0000-0--0-1--x3
PM ....   ....   .... .       ....   ....   ....    .

4)----------------------5-4-5----------------------------
5)------2------2--------3-2-3------2------2------2-------
6)-0000-0-0000-0-0000-0-------0000-0-0000-0-0000-0-------
PM ....   ....   .... .       ....   ....   ....
Suggest correction
Give kudos to tab author, rate the tab!
1 2 3 4 5
comments
print report bad tab
guest
Wanna post a correction for this tab? Suggest correction