Oops, an error
Loading. Please wait.

Lenta Muerte Bass Tab

11 views 1 this week
no commentswrite comment
1 2 3 4 5
3 more votes to show rating
add to favorites
launch autoscroll
font size
0
reset
guitar tuner
×
Best way to learn
"Lenta Muerte"
Autoscroll
slow
fast
+/-
esc
set tempo
stop
intro
1)-----------------------------------
2)-----------------------------------
3)--------------------------77777777-
4)-3-2-5-3-3-2-3-5-00000000----------x3

1)-------------------------------------------------------------
2)-------------------------------------------------------------
3)---------------------57--57--79------------57--57--79--------
4)-3-2-5-3-3-2-3-5-0000--00--00--00-1-1--0000--00--00--00-4-1--x2

Riff 1 (Estribillo)
1)------------------------------------------------
2)------------------------------------------------
3)------------------------------------------------
4)-00-00-00-011-4-4-4-00-00-00-2-1-0-2-1-0-2------x2

Riff 2 
1)---------------------------------------------
2)---------------------------------------------
3)------------------------------------22222222-
4)-0000-1111-4444-1111-0000-1111-4444----------x2

RIFF2 (B)
1)-----------------------------------------------------------
2)--------------------------------------------------99999999-
3)-7777-8888-11-11-11-11-8888-7777-8888-11-11-11-11----------
4)-----------------------------------------------------------x2

RIFF 2 canta
RIFF 1 estribillo
RIFF 2, RIFF2 canta

Corta
1)------
2)------
3)------
4)-0-1--

Riff 3 (Base antes solo)
1)-------------------------------------------
2)-------------------------------------------
3)-------------------------------------------
4)-1111-1-1-0-1111-1-1-0-1111-1-1-0-1111-3-4-x2

Base solo 
1)-------------------------------------------
2)-------------------------------------------
3)-------------------------------------------
4)-1111-1-1-0-1111-1-1-0-3333-3-3-0-3333-3-5-x2

Base a 2 violas
1)-------------------------------
2)-------------------------------
3)-------------------------------
4)-1-1-111-111-00-3-3-333-33-3-5-X4

Riff 3 

1)---------------------
2)---------------------
3)---------------------
4)-1111\8888\4444\6666-x6
				     Empieza el solo
1)-------------------------------------------------------------------------
2)-------------------------------------------------------------------------
3)------------------2-222-222-222-22-----------------3----2-222-222-222-22-
4)-1-111-111-111-00------------------1-111-111-00-00---00------------------x5

Final
1)-----------------------------------------------------
2)-----------------------------------------------------
3)-----------------------------3-3333333---------------
4)-1111-1111-11-1111-1111-11-0-----------0-3-3333333---x3

1)----------------------------
2)----------------------------
3)----------------------------
4)-111111-1-1-1-111111-1-1-1--
Suggest correction
Give kudos to tab author, rate the tab!
1 2 3 4 5
comments
print report bad tab
guest
You may want to rate the tab now too:
select rating
Wanna post a correction for this tab? Suggest correction