Oops, an error
Loading. Please wait.

Lenta Muerte Tab

17 views 3 this week
no commentswrite comment
1 2 3 4 5
3 more votes to show rating
add to favorites
launch autoscroll
font size
0
reset
how to read this tab
guitar tuner
×
Best way to learn
"Lenta Muerte"
Autoscroll
slow
fast
+/-
esc
set tempo
stop
intro
5)-3-2-5-3-3-2-3-5---------------------
6)-3-2-5-3-3-2-3-5-00000-000000-00000--x3
PM                 ..... ...... .....

4)---------------------79--79--79------------79--79--79--------
5)-3-2-5-3-3-2-3-5-----57--57--57---3-3------57--57--57---6-3--
6)-3-2-5-3-3-2-3-5-0000--00--00--00-1-1--0000--00--00--00-4-1--x2
PM                 ....  ..  ..  ..      ....  ..  ..  .. 

Riff 1 (Estribillo)
5)------------------6-6-6--------------4-3---4-3---4------
6)-00-00-00-000-111-4-4-4-00-00-00-000-2-1-0-2-1-0-2------x2
PM .. .. .. ... ...       .. .. .. ... . . . . . . .

Riff 2 
4)------------------------------------4----
5)-2----3----6----3----2----3----6----2222-
6)-0000-1111-4444-1111-0000-1111-4444------x4 2 ultimas machaca
PM  ...  ...  ...  ...  ...  ...  ...  ...

Riff 2 canta
Riff 1 estribillo
Riff 2 canta

Corta
5)---3--
6)-0-1--
PM .

Riff 3 (Base antes solo)
5)-3-------3-3---3-------3-3---3-------3-3---3-------5-6-
6)-11111-0-1-1-0-11111-0-1-1-0-11111-0-1-1-0-11111-0-3-4-x2
PM  .... . . . .  .... . . . .  .... . . . .  .... .   

Base solo 
5)-3-------3-3---3-------3-3---5-------5-5---5-------5-7-
6)-11111-0-1-1-0-11111-0-1-1-0-33333-0-3-3-0-33333-0-3-5-x2
PM  .... . . . .  .... . . . .  .... .     .  .... .

Base a 2 violas
3)--------------2-----2-------3-2-----2-------
4)-3-3--3-2-3-5---3-5--5-5--------5-3---5-3-0-x4

Riff 3 

corta
5)-2-
6)-0-

Queda el bajo solo 1 vuelta, 2da vuelta corta otra guitarra, entra en la 3era.
4)---5---3-3-3---|------5---------3-----|
5)-3-3-6-1-1-1---|-3----3333-6----1111--|
6)-1---4---------|-1111------4444-------|x4
PM                 .... ........ ....

base solo 2
4)--------4-----------5--4--------
5)-3------2----3------3--2--------
6)-1----00-----1----00-00---------x4
PM      ..          .. ..

5)-3----3-3---3----3-3---3-----3---2-----2-----
6)-1111-1-1-0-1111-1-1-0-3-33-3-33-3-33-3-33---x3
PM  ... . . .  ... . . .   .. ....   .. ....

Final
5)-3------3-3-3-3------3-3-3--
6)-111111-1-1-1-111111-1-1-1--
PM  ..... . . .  ..... . . .
Suggest correction
Give kudos to tab author, rate the tab!
1 2 3 4 5
comments
print report bad tab
guest
You may want to rate the tab now too:
select rating
Wanna post a correction for this tab? Suggest correction