Oops, an error
Loading. Please wait.

Privado De Libertad Bass Tab

7 views 1 this week
no commentswrite comment
1 2 3 4 5
3 more votes to show rating
add to favorites
launch autoscroll
font size
0
reset
guitar tuner
×
Best way to learn
"Privado De Libertad"
Autoscroll
slow
fast
+/-
esc
set tempo
stop
1)------------------------------------------------------------
2)---------------------------------7--7-10--10--9-\-----------
3)---------------------7--7-10--10-----------------\-2-0------
4)-0--0-3--3-5--5-8--8-----------------------------------3-2--

1)------------------------------------
2)------------------------------------
3)---4^5^4---5^7^5---7^9^7-33-22------
4)-0-------0-------0-------------3-2--x4

1)------------------------------------------
2)------------------------------------------
3)---4^5^4---5^7^5---7^9^7-33-22------------
4)-0-------0-------0-------------3-2-3-320--

1)-------------------------------------------------------------
2)-------------------------------------------------------------
3)---------0--0-3--33------------0--00-3--3-2--20--20--20------
4)-0-3--33------------0--00-3--3-----------------32---32--32-0-

RIFF 1
1)---------------------  -----------------------------
2)---------------------  -----------------------------
3)-2---3---1-2---3---5-  -2(2)--3(3)-1-2(2)--3---5----
4)---------------------  -----------------------------

RIFF 2 (base)
1)----------------------------------------------------------
2)----------------------------------------------------------
3)-222-22-222-22-333-33-333-3-1-222-22-222-22-333-33-555-55-
4)----------------------------------------------------------x2

RIFF 3
1)-------------------------
2)-------------------------
3)-2(2)-3-33-1-2(2)-33-55--
4)-------------------------x2

RIFF 2

Entreda al solo
1)-------------------------------------
2)-------------------------------------
3)-77777777-55555555-------------------
4)-------------------77777777-77777777-

Base del solo
1)-----------------------------	 -----	-----------------------------------------
2)-----------------------------	 -----	-----------------------------------------
3)-3##-5##-2##-7##-3##-5##-2##-	 -2##-	-3##-5##-2##-7##-3##-5##-2##-------------
4)-----------------------------	 -----	-----------------------------5-3-5-3-2-3-

Solo lento
1)-------------------------------------
2)-------------------------------------
3)----23--4--43--------23--4--43-2-----
4)-0-------------0320--------------3-2-x3

RIFF 1, RIFF 2, RIFF 3 (solo x1), RIFF 2

1)------------------------------------------------------------------------------------
2)----------------------------------------------------------------------7------7------
3)-77777777-55555555--------------------77777777-55555555----------10-9------9---10-9-
4)-------------------77777777-77-7-7-7--------------------77777777--------10----------

1)-----------------------------------------------------------
2)---------------------------------------------7------7------
3)-77-7-77-7-77-55-5-55-5-55--------------10-9------9---10-9-
4)---------------------------77-7-77-7-77--------10----------

1)-----------------------------------------------------------
2)---------------------------------------------7------7------
3)-7---------77-5---------55--------------10-9------9---10-9-
4)---------------------------7-------------------10----------

1)--------------------------------------------------------------
2)---------------------------------------------7------7---------
3)-77-7-77-7-77-55-5-55-5-55--------------10-9------9---10-9----
4)---------------------------77-7-77-7-77--------10----------0--
Suggest correction
Give kudos to tab author, rate the tab!
1 2 3 4 5
comments
print report bad tab
guest
You may want to rate the tab now too:
select rating
Wanna post a correction for this tab? Suggest correction