Oops, an error
Loading. Please wait.

Privado De Libertad Tab

9 views 1 this week
no commentswrite comment
1 2 3 4 5
3 more votes to show rating
add to favorites
launch autoscroll
font size
0
reset
how to read this tab
guitar tuner
Autoscroll
slow
fast
+/-
esc
set tempo
stop
Help us to improve Ultimate-Guitar.com Take our survey!
×
Intro con distorcion
4)-9---12---14---17-\-------------2----55--4---------	
5)-7---10---12---15--\--2---5-----0--0-33--2--20-----
6)--------------------\-0---3-333---------------320--
PM                            ...    .        

Arpegio de base solo 1
2)-----0--------0--------0----------------
3)----0-0-0----0-0-0----0-0-0---0---0-----
4)---4---4----5---5----7---7---5---4------
5)--2--------3--------5-------3---2-------
6)-0--------0--------0----------------32--

La ultima vuelta hace
2)-----0--------0--------0--------------------------
3)----0-0-0----0-0-0----0-0-0---0---0---------------
4)---4---4----5---5----7---7---5---4-------0---0----
5)--2--------3--------5-------3---2----5--4---5-----
6)-0--------0--------0----------------3--2---3---32-

Con distorcion
4)------------2---5-----------------2------5-5--4-----------------
5)-2----5-----0---3-----2-----5---5-0-00-0-3-3--2---20--20--20--2-
6)-0---03-33-3------032-0-00-03---3-------------------32--32--320-
PM     .  ..        ...   .. .        .. .                   

Cortes 1	|x2 la primera deja sonando los tonos la segunda no
4)-4--5--34-5-7-|--------
5)-2--3--12-3-5-|--------

Riff 1 canta
4)--2-----2-----5-----5-----3-4-----4-----5-----7------
5)--22222-22222-33333-33333-1-22222-22222-33333-55555-- x2
PM   ....  ....  ....  ....    ....  ....  ....  ....

sin machaque
4)---4------5-55--3-4------5-----77--
5)---2------3-33--1-2------3-----55--
6)-00-----00-------------00----00---- x2
PM ..     ..             ..    ..

Riff 1 x2

Riff 2 Base solo 2
intro al solo------------------------>aca empieza

4)-66666666-77777777--------------------------
5)-77777777-55555555-99999999-9999-9-9--------
6)-------------------77777777-7777-7-7--------
PM ........ ........ ........ .... 

base del tapping
4)-5--------7--------4--------9--------5--------7--------4--------44-44-4-----
5)-33333333-55555555-22222222-77777777-33333333-55555555-22222222-22-22-2-----
PM  .......  .......  .......  .......  .......  .......  .......

4)-5--------7--------4--------9--------5--------7--------4--------------------
5)-33333333-55555555-22222222-77777777-33333333-55555555-22222222-------------
6)----------------------------------------------------------------5-3-5-3-2-3-
PM  .......  .......  .......  .......  .......  .......  ....... . . . . . . 

Base arpegio para solo 3
2)------0---------0---------0--------0----------0---------0---------0---|--
3)-----0-0-------0-0-------0-0------0-0--------0-0-------0-0-------0-0--|--
4)----2---2-----2---2-----2---2----2----------2---2-----2---2-----2---2-|--
5)----------23--------34-------43-------------------23--------34--------|--
6)-0------------------------------------32-0----------------------------|--

Fin primera vuelta        Fin segunda vuelta
2)----0----0------------|----0---0--------------
3)---0-0--0-0-----------|---0---0---------------
4)--------------0---0---|-----------0----0------
5)-43----2-----0---0----|-43---2---0-0--0-0-----
6)------------3---2-----|---------3----2--------

Corta con distorcion

5)-2--
6)-0--

Corte 1, Riff 1 x2, Sin machaque x1, riff 1 x2, Riff 2 intro a solo x2.
4)-666-666-6-777-777-7----------------7------7---------
5)-777-777-7-555-555-5-999-999-9-(10)9------9--(10)97--
6)---------------------777-777-7--------(10)-----------x2
PM  ..  ..    ..  ..    ..  ..    

Final
4)--9------11------12----------------14-12-11-9--
5)--777777-9999999-10-10-10-10-10-10-12-10-9--7--
6)--------------------------------------------0--
PM  ...... ......  .  .  .  .  .  .
Suggest correction
Give kudos to tab author, rate the tab!
1 2 3 4 5
comments
print report bad tab
guest
You may want to rate the tab now too:
select rating
Wanna post a correction for this tab? Suggest correction