Oops, an error
Loading. Please wait.

Tierratas Bass

15 views 1 this week
no commentswrite comment
1 2 3 4 5
3 more votes to show rating
add to favorites
×
Save as Personal and add changes to this tab that will be seen only by you. Learn more ›
×
You can save this tab as Personal to edit and correct it or add notes. All changes will be seen only by you. Learn more »
save as personal
new!
launch autoscroll
font size
0
reset
guitar tuner
Autoscroll
slow
fast
+/-
esc
set tempo
stop
Intro			Larga la guitarra y corta
1)------------      --------			--------
2)------------      --------			--------
3)-2----------      -2------			--------
4)---3-2-232--x4    --------			--2-----

RIFF 1 (base)
1)--------------------------------------------------
2)--------------------------------------------------
3)--------------------------------------------------
4)-000000-33-222222-33-000000-33-2222-3-2-33--------x6

RIFF 2 (pre-estribillo)
1)--------------------------------------------------
2)--------------------------------------------------
3)--------------------------------------------------
4)-5555555-8-4444444-8-55555555-888-7---------------x2

RIFF 3 (estribillo)
1)--------------------------------------------------
2)--------------------------------------------------
3)-7-77---6-66---7-77---6---------------------------
4)------0------0------0---0-777---------------------x2

RIFF1, RIFF2, RIFF3, RIFF1 (solo x2)

1)----------------------------------------------------------------------
2)----------------------------------------------------------------------
3)-----------------------------------------------------------------5-3--
4)-3^2-222222-3^2-222-222-222-3^2-22-3^2-22-3^222-222-222-0540-750------x4

Base del solo
1)--------------------------------------------------
2)--------------------------------------------------
3)--------------------------------3333-2222---------
4)-55555555-5-8-11111111-33333333-------------------x2

1)----------------------------------------------------------------------------
2)----------------------------------------------------------------------------
3)----------------------------------------------------------------------------
4)-55555555-33333333-11111111-33333333-55555555-33333333-11111111-3-3-3-333-5-

RIFF1 x2 como base del solo
RIFF1 x4, RIFF2, RIFF3 x4

Termina 1)-------	
	2)-------
	3)-------
	4)---0---
Suggest correction
Give kudos to tab author, rate the tab!
1 2 3 4 5
comments
print report bad tab
guest
Wanna post a correction for this tab? Suggest correction