Oops, an error
Loading. Please wait.

Tierratas Tab

26 views 1 this week
no commentswrite comment
1 2 3 4 5
3 more votes to show rating
add to favorites
×
Save as Personal and add changes to this tab that will be seen only by you. Learn more ›
×
You can save this tab as Personal to edit and correct it or add notes. All changes will be seen only by you. Learn more »
save as personal
new!
launch autoscroll
font size
0
reset
how to read this tab
guitar tuner
Autoscroll
slow
fast
+/-
esc
set tempo
stop
Intro 

4)-4-------
5)-2-5-4---
6)---3-2---

Queda otra viola 1 vuelta y despues hace
5)---------------------------------------4---
6)-00000000-3333-222222-3333-000000-3333-2-Corta
PM ........ .... ...... .... ...... .... 

Riff 1 Canta
5)--------------------------------------------------5-
6)-00000000-3333-222222-3333-000000-3333-22222-323333-
PM ........ .... ...... .... ...... .... ..... .....

Riff 2 pre-estribillo
5)-7---------6---------7----------1010---9------
6)-555555-88-444444-88-55555555-0-8-8--0-7------
PM ...... .. ...... .. ........ .      .

4)--------------------------------1010---9------
5)-7---------6---------7----------8-8----7------
6)-555555-88-444444-88-55555555-0------0--------
PM ...... .. ...... .. ........ .      .

Riff 3 Estribillo
4)-9-99---8-88---9-99---8--------------------
5)-7-77---6-66---7-77---6---999--------------
6)------0------0------0---0-777-0------------
PM      .      .      .   . ... .

Riff 1, riff 2, Riff 3, Riff 1.

Riff 4 previo al solo
4)-------------------------------------------------------------------7/5-----
5)-5/4-4------5/4-4-----------5/4----5/4----5/4-4--------------------5/3-5/4-
6)-3/2-222222-3/2-222-222-222-3/2-22-3/2-22-3/2-222-222-222-0540-750-----3/2-
PM     ......     ... ... ...     ..     ..     ... ... ... .... ...  

Riff 5 Base solo
4)-------------------------5---4---------------------------5---4----
5)-7---------3------5------333-222-7---------3------5------333-222--
6)-555555-58-111111-333333----0----555555-58-111111-333333----0-----
PM ...... ..  ..... ...... ....... ...... ..  ..... ...... .......

5)-7------5------3------5------7------5------3------5-5-5-5-7-
6)-555555-333333-111111-333333-555555-333333-111111-3-3-3-3-5- Corta
PM ...... ...... ...... ...... ...... ...... ...... 

Riff 1 como base del solo.

Riff 1, Riff 2, Riff 3.
Suggest correction
Give kudos to tab author, rate the tab!
1 2 3 4 5
comments
print report bad tab
guest
Wanna post a correction for this tab? Suggest correction