Oops, an error
Loading. Please wait.

Andromeda tab

version 1
version 1

Whole song

Interactive

4,924 views 24 this week
3 commentsread comments
1 2 3 4 5
x 8
add to favorites
×
Save as Personal and add changes to this tab that will be seen only by you. Learn more ›
×
You can save this tab as Personal to edit and correct it or add notes. All changes will be seen only by you. Learn more »
launch autoscroll
font size
0
reset
how to read this tab
guitar tuner
edit
Autoscroll
slow
fast
+/-
esc
set tempo
stop
MASTODON
"Andromeda"
From the album "Emperor of Sand" (2017)

Tuning = Whole Step Down From Standard (D G C F A D)
Tempo = 140 bpm

[Intro]

D|--------------------|------------------------|
A|--------------------|------------------------|
F|--------------------|------------------------|
C|-4--5--4-10--8--7/8\|-7--4--5--4-------------|
G|-3--4--3--9--7--6/7\|-6--3--4--3-3-3-3-3-3-3-|
D|-2--3--2--8--6--5/6\|=5--2--3--2-------------|
                                   + + + + + + 

[Verse]

D||--------------------|------------------------||
A||--------------------|------------------------||
F||--------------------|------------------------||
C||-4--5--4-10--8--7/8\|-7--4--5--4-------------|| x8
G||-3--4--3--9--7--6/7\|-6--3--4--3-3-3-3-3-3-3-||
D||-2--3--2--8--6--5/6\|=5--2--3--2-------------||
                                   + + + + + + 

[Pre-Chorus]

D||-10-----------|-------/13~----|--------------|--------------||
A||----11--------|----11---------|-14-----------|-------13~----||
F||-------12~----|-12------------|----11--------|----11--------||
C||--------------|---------------|-------12~----|-12-----------|| x3
G||--------------|---------------|--------------|--------------||
D||--------------|---------------|--------------|--------------||


[Chorus]
D||-----6-----|-----------|-----5-----|----------------||
A||-----------|-----10----|-----------|-----8----------||
F||---7-------|---7-------|---6-------|---6----7b9r7---||
C||-----------|-----------|-----------|----------------|| x2
G||-----------|-----------|-----------|----------------||
D||-6---------|-6---------|-5---------|-5--------------||


[Verse]

D||--------------------|------------------------||
A||--------------------|------------------------||
F||--------------------|------------------------||
C||-4--5--4-10--8--7/8\|-7--4--5--4-------------|| x6
G||-3--4--3--9--7--6/7\|-6--3--4--3-3-3-3-3-3-3-||
D||-2--3--2--8--6--5/6\|=5--2--3--2-------------||
                                    + + + + + + 

[Pre-Chorus]
   Gtr 1
D||-10-----------|-------13b~----|--------------|--------------||
A||----11--------|----11---------|-14-----------|-------13~----||
F||-------12~----|-12------------|----11--------|----11--------||
C||--------------|---------------|-------12~----|-12-----------||
G||--------------|---------------|--------------|--------------||
D||--------------|---------------|--------------|--------------||
 | Gtr 2                                                          X2
D||--------------|-------17b~----|--------------|-------17~----||
A||-18-----------|---------------|-17-----------|---------~----||
F||----15---~----|----15---------|----14--------|----14--------||
C||-------17~----|-17------------|-------16~----|-16-----------||
G||--------------|---------------|--------------|--------------||
D||--------------|---------------|--------------|--------------||


[Chorus]

D||-----6-----|-----------|-----5-----|----------------||
A||-----------|-----10----|-----------|-----8----------||
F||---7-------|---7-------|---6-------|---6----7b9r7---||
C||-----------|-----------|-----------|----------------|| x2
G||-----------|-----------|-----------|----------------||
D||-6---------|-6---------|-5---------|-5--------------||


[Solo]

D|-------------|------------|---------------|---------------|---------------12--|
A|--------5--5-|-5---5------|---------------|---------------|----------/15------|
F|-------------|---7---7----|-(7)-------7/9-|-9-9-9h10-9----|-(9)---------------|
C|-------------|------------|---------------|---------------|-------------------|
G|-------------|------------|---------------|---------------|-------------------|
D|-------------|------------|---------------|---------------|-------------------|


D|-12--------------------|---------------12-|-12-12-12-13/15~~~-|-(15)-------------------|
A|----15-15-15----15tr17-|-(15)------15-----|-------------------|------------------------|
F|-----------------------|------------------|-------------------|------------------------|
C|-----------------------|------------------|-------------------|-------------------5----|
G|-----------------------|------------------|-------------------|---------5-(5)-8-7---8--|
D|-----------------------|------------------|-------------------|------------------------|


D|-------------------------------|-------------------------------|
A|-------------------------------|-------------------------------|
F|-------5h7-7--7-5---7----------|-------------------------------|
C|-7-5-8------------8----8\7-5---|-8-5-7~-7h8p7p5-7~~--5-7h8p7p5-|
G|-----------------------------7-|-------------------------------|
D|-------------------------------|-------------------------------|


D|----------------|---------------|
A|----------------|---------------|
F|----------------|----------7--9-|
C|-7~~7(19)--7~~~-|-(7)-----------|
G|----------------|---------------|
D|----------------|---------------|


D|-------------------------------|---------------------------|
A|-------------------------------|---------------------------|
F|-7h9h10-9h10h12-10h12h14-(14)--|p12h14--14h15h17-(17)--15--|
C|-------------------------------|---------------------------|
G|-------------------------------|---------------------------|
D|-------------------------------|---------------------------|


D|---------------------|-----------|
A|---------------------|-----------|
F|-14~~~-14--14--14h15-|-14--------|
C|---------------------|-----------|
G|---------------------|-----------|
D|---------------------|-----------|


[Bridge]
   Gtr 1
D||-----------|-----------|
A||-----------|-----------|
F||-----------|-----------|
C||-----------|-----------|
G||---1-------|---0-1-----|
D||-0---2-----|-2---------|
 |
 | Gtr 2
D||-----------|-----------|
A||-----------|-----------|
F||-----------|-----------|
C||---8-------|---7-8-----|
G||-----9-----|-9---------|
D||-0---------|-----------|

   Both Gtrs
D|---------------------------------|---------------------------------||
A|---------------------------------|---------------------------------||
F|---------------------------------|---------------------------------||
C|---------------------------------|---------------------------------|| x2
G|-7-7-7-8-8-8-5-5-5-5-5-5-5-5-5-5-|-7-7-7-8-8-8-4-4-4-4-5-5-4-4-5-5-||
D|---------------------------------|---------------------------------||


D|--------------|--------------|--------------|---------------|
A|---6----------|--------6---6-|---6----------|--------5-4-2--|
F|-----6--------|-----6----9---|-----6----6-5-|---3-----------|
C|--------------|---8----------|--------------|---------------|
G|--------------|--------------|--------------|---------------|
D|-6------6-6-8-|-9------------|-6------6-----|-3---3---------|


D|--------------|--------------|--------------|-----------0----|
A|---6----------|--------6---6-|---6----------|---------4---4--|
F|-----6--------|-----6----9---|-----6----6-5-|---3-4/6--------|
C|--------------|---8----------|--------------|----------------|
G|--------------|--------------|--------------|----------------|
D|-6------6-6-8-|-9------------|-6------6-----|-3--------------|


   Gtr 1
D||-----------|-----------|
A||-----------|-----------|
F||-----------|-----------|
C||-----------|-----------|
G||---1-------|---0-1-----|
D||-0---2-----|-2---------|
 |
 | Gtr 2
D||-----------|-----------|
A||-----------|-----------|
F||-----------|-----------|
C||---8-------|---7-8-----|
G||-----9-----|-9---------|
D||-0---------|-----------|

   Both Gtrs
D|---------------------------------|---------------------------------||
A|---------------------------------|---------------------------------||
F|---------------------------------|---------------------------------||
C|---------------------------------|---------------------------------|| x2
G|-7-7-7-8-8-8-5-5-5-5-5-5-5-5-5-5-|-7-7-7-8-8-8-4-4-4-4-5-5-4-4-5-5-||
D|---------------------------------|---------------------------------||


[Pre-Chorus]
   Gtr 1
D||-10-----------|-------13b~----|--------------|--------------||
A||----11--------|----11---------|-14-----------|-------13~----||
F||-------12~----|-12------------|----11--------|----11--------||
C||--------------|---------------|-------12~----|-12-----------||
G||--------------|---------------|--------------|--------------||
D||--------------|---------------|--------------|--------------||
 | Gtr 2                                                          X2
D||--------------|-------17b~----|--------------|-------17~----||
A||-18-----------|---------------|-17-----------|---------~----||
F||----15---~----|----15---------|----14--------|----14--------||
C||-------17~----|-17------------|-------16~----|-16-----------||
G||--------------|---------------|--------------|--------------||
D||--------------|---------------|--------------|--------------||


[Verse]

D||--------------------|------------------------||
A||--------------------|------------------------||
F||--------------------|------------------------||
C||-4--5--4-10--8--7/8\|-7--4--5--4-------------|| x4
G||-3--4--3--9--7--6/7\|-6--3--4--3-3-3-3-3-3-3-||
D||-2--3--2--8--6--5/6\|=5--2--3--2-------------||
                                    + + + + + + 

[Outro]
   Gtr 1
D||-------------------|-------------------|
A||-------------------|-------------------|
F||-------------------|----------9--------|
C||-------------------|-7-----------10-11-|
G||-0--------7--------|----8--9-----------|
D||----1--2-----8--9--|-------------------|
 | Gtr 2
D||-------------------|-------------------|
A||-------------------|-------------------|
F||---------/9--------|-------------------|
C||-2-----------10-11-|-11------\5--------|
G||----3--4-----------|----12-13----6--7--|
D||-------------------|-------------------|

   Both Gtrs
D|---------------------------------|---------------------------------||
A|---------------------------------|---------------------------------||
F|---------------------------------|---------------------------------||
C|---------------------------------|---------------------------------|| x4
G|-4-4-4-4-4-4-4-4-4-4-4-4-4-4-4-4-|---------------------------------||
D|---------------------------------|-6-6-6-6-6-6-6-6-6-6-6-6-6-6-6-6-||


*********************************** 
|  /  Slide up 
|  \  Slide down 
|  h  Hummer-on 
|  p  Pull-off 
|  +  Harmonic
|  ~  Vibrato 
|  b  Bend 
|  =  Hold Bend
|  tr Trill
| (n) Ghost Note
***********************************

            
            
Suggest correction
Creating personal tab
Creating personal tab
You can edit any tab online and save it as your Personal.

You can edit, replace or remove any tab part or add personal notes – all changes will be seen only by you.

Personal tabs can be accessed anytime from any device, even offline.
Learn more »
comments
print report bad tab
3 comments total.
0 reply
owen556 111 Mar 07, 2017 06:42 PM

thanks so much!! Haven't tried it out yet but I'm so gonna learn this over spring break, the headbanging is real af mannnnn :D

+1 reply
Opranius 72 Mar 13, 2017 04:15 PM

outro might be with an additional 0 c string btw.

0 reply
jackrya2 10 May 26, 2017 07:26 AM

chorus:
d. 6. 5. 5. 3
a. 3. 3. 2. 2. 232
f. 3. 3. 2. 2

same as you've got just the correct tone. pre chorus notes are also correct just played on fad strings.
d. 9. 8
A. 7. 7
f. 7. 7

guest
You may want to rate the tab now too:
select rating
Wanna post a correction for this tab? Suggest correction