Oops, an error
Loading. Please wait.

Aqua Dementia Bass Tab

version 1
version 1

Whole song

Interactive

1,968 views 3 this week
4 commentsread comments
1 2 3 4 5
accurate
x 4
add to favorites
launch autoscroll
font size
0
reset
guitar tuner
Autoscroll
slow
fast
+/-
esc
set tempo
stop
Help us to improve Ultimate-Guitar.com Take our survey!
×
Author
Difficulty
intermediate
Mastodon - Aqua Dementia

tuning (low to high) - D G C F

Riff 1 x1
|-------------------------------------------------------------------------|
|-------------------------------------------------------------------------|
|-------------------------------------------------------------------------|
|------0-0-0------1-1-1------0-0-0------1-1-1------10-10-10------12-12-12-|

|-------------------------------------------------------------------------|
|-------------------------------------------------------------------------|
|-------------------------------------------------------------------------|
|------10-10-10------12-12-12------6-6-6------5-5-5------6-6-6------5-5-5-|

|---------------------------------------------------------|
|---------------------------------------------------------|
|---------------------------------------------------------|
|------10-10-10------12-12-12------10-10-10------12-12-12-|

Fill 1A x1
|-----------------------------------------|
|-----------------------------------------|
|-2---0-2-3--3-3------2---0-3-2--2-2------|
|---0-------------------0-----------------|

Fill 1B x1
|---------------------------------|
|---------------------------------|
|-2---0-2-3--3-3--2---0-3-2--2-2--|
|---0---------------0-------------|

Riff 2 x3
|-----------------------------------------------------------------|
|-----------------------------------------------------------------|
|-2---0-2-3--3-3--2---0-3-2--2-2--2---0-2-3--3-3--2---0-3-2--2-2--|
|---0---------------0---------------0---------------0-------------|

|---------------------------------------------|
|---------------------------------------------|
|-7-7-7--6-7--9-9-9--6--7-7-7--6-7--9-9-9--6--|
|---------------------------------------------|

Riff 3A x2
|---------------------------------------------|
|---------------------------------------------|
|---------------------------------------------|
|-8-0-0-5-0-0-3-0-6-0-5-8-0-0-5-0-0-3-0-5-0-6-|

Fill 2 x2
|-----------------------|
|-----------------------|
|-7-7-7--6-7--9-9-9--6--|
|-----------------------|

Riff 3A x1

Fill 2 x1(short)

Riff 3A x2

Riff 3B x2
|-------------------------------------------------|
|-------------------------------------------------|
|-------------------------------------------------|
|-8-8-8-5-5-5-3-3-6-6-5-5-8-8-8-5-5-5-3-3-5-5-6-6-|

Riff 4 x2
|-------------------------------------------------------------------|
|-4---------4-----5-------------------4-------4-------5-------------|
|---2-----2---------3-----7p5--3--------2-------2-------3-----7-7^--|
|------0-------0-------0---------3-1-------0-------0-------0--------|

Riff 5 x2
|---------------------------------------------------------------------------------|
|---------------------------------------------------------------------------------|
|---------------------------------------------------------------------------------|
|-7-7-7-000-7-7-7--7--7-7-7-000-7-7-7--7--6-6-6-000-6-6-6--6--6-6-6-000-6-6-6--6--|

|---------------------------------------------------------------------------------|
|---------------------------------------------------------------------------------|
|-5-5-5-----5-5-5--5--5-5-5-----5-5-5--5--7-7-7-----7-7-7--7--7-7-7-----7-7-7--7--|
|-------000-----------------000-----------------000-----------------000-----------|

Riff 4 x2

End With
|-------------|
|-4-----------|
|---2---------|
|------0------|
Suggest correction
comments
print report bad tab
4 comments total. Showing first comments.
0 reply
travislausch 2,848 wrote on April 7 2006, 12:52 pm

Excellent, this will make a perfect base to start transcribing the guitar parts =D

0 reply
kevhead 204 wrote on July 2 2006, 12:47 pm

This is in the wrong tuning, the 1st string should be in A.

0 reply
KravenWinter 10 wrote on May 8 2009, 11:48 am

No, he has the tuning pretty much correct. They play in D-G-C-F.

guest
You may want to rate the tab now too:
select rating
Please do not post tabs as comments. Select "correction" instead!