Oops, an error
Loading. Please wait.

Aqua Dementia Tab

version 1
version 1

Intro

Whole song

Interactive

7,853 views 6 this week
5 commentsread comments
1 2 3 4 5
excellent!
x 5
add to favorites
launch autoscroll
font size
0
reset
how to read this tab
guitar tuner
Autoscroll
slow
fast
+/-
esc
set tempo
stop
Help us to improve Ultimate-Guitar.com Take our survey!
×
Difficulty
intermediate
-------------------------------------------------------------------------------
                             Aqua Dementia - Mastodon
-------------------------------------------------------------------------------
Tabbed by:Mike
Email:(xmudvaynex_ld50@hotmail.comNOSPAM)

Tuning: DGCFAD
I'll just tab out the intro and the other part, kuz the rest is relatively easy,and i'm lazy.
                        INTRO
e|-----0-3p0-0---------|------0-----0-----0-|-----0-3p0-0---------|
B|-0h5---------5p0-----|--0h3---0h5---0h6---|-0h5---------5p0-----|
G|-----------------4p0-|--------------------|-----------------4p0-|
D|---------------------|--------------------|---------------------|
A|---------------------|--------------------|---------------------|
E|---------------------|--------------------|---------------------|

e|-----0-----0-----0-|
B|-0h3---0h6---0h5---|
G|-------------------|  x2
D|-------------------|
A|-------------------|
E|-------------------|

e|-----0h2---0---------|-------------------|-----0h2---0---------|
B|-0h3-----3---3p0-----|-----0-----0-----0-|-0h3-----3---3p0-----|
G|-----------------3p0-|-0h2---0h4---0h5---|-----------------3p0-|
D|---------------------|-------------------|---------------------|
A|---------------------|-------------------|---------------------|
E|---------------------|-------------------|---------------------|

e|-------------------|
B|-----0-----0-----0-|
G|-0h2---0h5---0h4---|  x2 (then go back to top)
D|-------------------|
A|-------------------|
E|-------------------|
                                BRIDGE
e|--------------------------|----------------|-------------------------| -|
B|-3b(3)p0------------------|---0---0---0----|--0----0---0------0---0--|  |
G|---------2b(2)p0----------|---4---2---4----|--5----5---5------5---5--|  |
D|------------------2h3p2p0-|----------------|-------------------------|  |
A|--------------------------|-2--------------|-------------------------|  |
E|--------------------------|----------------|-------------------------|  |
                                                                          |x2
e|--------------------------|----------------|-------------------------|  |
B|-3b(3)p0------------------|---0---0---0----|--0----0---0------0---0--|  |
G|----------2b(2)p0---------|---4---2---5----|--4----4---4------4---4--|  |
D|------------------2h3p2p0-|----------------|-------------------------|  |
A|--------------------------|-2--------------|-------------------------|  |
E|--------------------------|----------------|-------------------------| -|

I have the rest of the song done too, but i wont type it up right now. I might later. 
welcome.

| b  bend
| /  slide up
| \  slide down
| h  hammer-on
| p  pull-off
| ~  vibrato
| +  harmonic
| x  Mute note
===============================================================================
Suggest correction
comments
print report bad tab
5 comments total. Showing first comments.
0 reply
M-JK 10 wrote on November 3 2006, 02:35 pm

extrodinairy tab, there is no such word in the english language that can describe it. I am forced to create one. Scrumdulecent.

0 reply
Aenima42 155 wrote on November 4 2006, 10:43 am

btw for people who might get confused, when it says "x2" for the first two riffs, it doesn't mean that little specific part, it means the entire riff x2.

0 reply
M-JK 10 wrote on November 6 2006, 09:30 am

When it says "x2" do you mean something to do with, a muted string on the second fret?

guest
You may want to rate the tab now too:
select rating
Please do not post tabs as comments. Select "correction" instead!