Oops, an error
Loading. Please wait.

Aqua Dementia Bass Tab

version 2
version 2

Whole song

Interactive

2,205 views 1 this week
no commentswrite comment
1 2 3 4 5
2 more votes to show rating
add to favorites
launch autoscroll
font size
0
reset
guitar tuner
Autoscroll
slow
fast
+/-
esc
set tempo
stop
Help us to improve Ultimate-Guitar.com Take our survey!
×
----------------------------------------------------------------------------
			   AQUA DEMENTIA - Mastodon
----------------------------------------------------------------------------

Tabbed By : Christ
e-mail: almontel@tampabay.rr.com

Tuning:AGCF

Intro
F|---------------------------------------------------------------------|2x
C|---------------------------------------------------------------------|
G|---------------------------------------------------------------------|
A|-3-5-6--3-6-5--3-5-6--3-6-5--10-12-13--10-13-12--10-12-13--10-13-12--|

Pre-verse
F|--------------------------------------------|
C|--------------------------------------------|
G|-2-02333----2-03222----2-02333----2-03222---|
A|--0----------0----------0----------0--------|

Verse a
F|-----------------------------------|2x
C|-----------------------------------|
G|-2-02333-2-03222-2-02333-2-03222---|
A|--0-------0-------0-------0--------|

Verse b
F|--------------------------------|
C|--------------------------------|
G|-777-6/7-999-6--777-6/7-999-6---|
A|--------------------------------|

Verse a
Verse b
Verse a
Verse b

Chorus
F|----------------------------------------------|2x
C|----------------------------------------------|
G|----------------------------------------------|
A|-8-00-5-00-3-0-5-0-6-0-8-00-5-00-3-0-6-0-5-0--|

Verse b
Chorus
Verse b 1/2x
Chorus 2x

Chorus Variation
F|------------------------------------|2x
C|------------------------------------|
G|------------------------------------|
A|-888-555-33-55-66-888-555-33-66-55--|

Outro
F|---------------------------------------------------------|2x
C|---------------------------------------------------------|
G|-2---2--2---2--3---3--3---3--2---2--2---2--5---5--5---5--|
A|---0------0------1------1------0------0------3------3----|

Outro Variation
F|---------------------------------------------------|
C|---------------------------------------------------|
G|-2-----2222222-----2222223-----3333333-----333333--|
A|--00000-------00000-------11111-------11111--------|

F|---------------------------------------------------|
C|---------------------------------------------------|
G|-2-----2222222-----2222225-----5555555-----555555--|
A|--00000-------00000-------33333-------33333--------|

Outro
F|--------------------------------------------------------------|
C|--------------------------------------------------------------|
G|-2---2--2---2--3---3--3---3--2---2--2---2--5---5--5---5--2----|
A|---0------0------1------1------0------0------3------3------0--|

| /  slide up
| \  slide down
| h  hammer-on
| p  pull-off
| ~  vibrato
| +  harmonic
| x  Mute note
============================================================================
Suggest correction
Give kudos to tab author, rate the tab!
1 2 3 4 5
comments
print report bad tab
guest
You may want to rate the tab now too:
select rating
Wanna post a correction for this tab? Suggest correction