Oops, an error
Loading. Please wait.

Aqua Dementia Tab

version 2
version 2

Whole song

Interactive

20,876 views 33 this week
13 commentsread comments
1 2 3 4 5
x 13
add to favorites
launch autoscroll
font size
0
reset
how to read this tab
guitar tuner
Autoscroll
slow
fast
+/-
esc
set tempo
stop
Help us to improve Ultimate-Guitar.com Take our survey!
×
Author
Difficulty
intermediate
Mastodon: aqua dementia (Leviathan 2004)


This is MY tab, the other one that was just an intro was mine also, but i forgot my 
So here is the complete version. comments, email me
xmudvaynex_ld50@hotmail.comNOSPAM_MOFO

        ~1 STEP DOWN ALL STRINGS, NOT STANDARD~
                     INTRO
e|-----0-3p0-0---------|------0-----0-----0-|-----0-3p0-0---------|
B|-0h5---------5p0-----|--0h3---0h5---0h6---|-0h5---------5p0-----|
G|-----------------4p0-|--------------------|-----------------4p0-|
D|---------------------|--------------------|---------------------|
A|---------------------|--------------------|---------------------|
E|---------------------|--------------------|---------------------|

e|-----0-----0-----0-|
B|-0h3---0h6---0h5---|
G|-------------------|  x2
D|-------------------|
A|-------------------|
E|-------------------|

e|-----0h2---0---------|-------------------|-----0h2---0---------|
B|-0h3-----3---3p0-----|-----0-----0-----0-|-0h3-----3---3p0-----|
G|-----------------3p0-|-0h2---0h4---0h5---|-----------------3p0-|
D|---------------------|-------------------|---------------------|
A|---------------------|-------------------|---------------------|
E|---------------------|-------------------|---------------------|

e|-------------------|
B|-----0-----0-----0-|
G|-0h2---0h5---0h4---|  x2 (then go back to top)
D|-------------------|
A|-------------------|
E|-------------------|
                                BRIDGE
e|--------------------------|----------------|-------------------------| -|
B|-3b(3)p0------------------|---0---0---0----|--0----0---0------0---0--|  |
G|---------2b(2)p0----------|---4---2---4----|--5----5---5------5---5--|  |
D|------------------2h3p2p0-|----------------|-------------------------|  |
A|--------------------------|-2--------------|-------------------------|  |
E|--------------------------|----------------|-------------------------|  |
                                                                        |x2
e|--------------------------|----------------|-------------------------|  |
B|-3b(3)p0------------------|---0---0---0----|--0----0---0------0---0--|  |
G|----------2b(2)p0---------|---4---2---5----|--4----4---4------4---4--|  |
D|------------------2h3p2p0-|----------------|-------------------------|  |
A|--------------------------|-2--------------|-------------------------|  |
E|--------------------------|----------------|-------------------------| -|

RIFF 1
e|-------------------------------------------------------------------------|
B|-------------------------------------------------------------------------|
G|-------------------------------------------------------------------------|
D|-4-----4--5--5-5---5-5--4-----5--4--4-4-4-4-4----------------------------|
A|-2-----2--3--3-3---3-3--2-----3--2--2-2-2-2-2----------------------------|
E|---0-0--------------------0-0--------------------------------------------|

e|-------------------------------------------------------------------------|
B|-------------------------------------------------------------------------|
G|-------------------------------------------------------------------------|
D|-4-----4--5--5-5---5-5--4-----5--4--4-4---4-4----------------------------|
A|-2-----2--3--3-3---3-3--2-----3--2--2-2---2-2----------------------------|
E|---0-0--------------------0-0--------------------------------------------|

RIFF 2
e|-----------------------------------------------------------|
B|-----------------------------------------------------------|
G|-8-----6--8--9--9-9---9-9---8-----6--9---8---8--8----8--8--|
D|-----------------------------------------------------------|x2
A|-6-----4--6--7--7-7---7-7---6-----4--7---6---6--6----6--6--|
E|-----------------------------------------------------------|

RIFF 3
e|--------7--6--7-----9---9---9-----6--6------------------------------|
B|----0---8--7--8----10--10--10-----7--7------------------------------|
G|-9--9---9--8--9----11--11--11-----8--8------------------------------|
D|-9--9---9--8--9----11--11--11-----8--8------------------------------|x2
A|-7--7---------------------------------------------------------------|
E|--------------------------------------------------------------------|
then repeat RIFF 1, Then RIFF 3, Then Riff 1, Then Riff 3, THEN Go on to riff 4
RIFF 4
e|----------------------------------------------------------------------|
B|----------------------------------------------------------------------|
G|-12-----9-----7---9---10-----12-----9-----7---10---9------------------|
D|-12-----9-----7---9---10-----12-----9-----7---10---9------------------|x2
A|-10-----7-----5---7----8-----10-----7-----5----8---7------------------|
E|----0-0---0-0---0---0----0-0----0-0---0-0---0----0----0---------------|


Then Do Riff 3 (x2 obviously) and then Do Riff 4 again, Then Continue to riff 5

RIFF 5
e|-------7---6--7----9---9---9----------------------------------|
B|----0--8---7--8---10--10--10----------------------------------|
G|-9--9--9---8--9---11--11--11----------------------------------|
D|-9--9--9---8--9---11--11--11----------------------------------|
A|-7--7---------------------------------------------------------|
E|--------------------------------------------------------------|
 Then do Riff 4 (ONLY x1)

Then Do Riff 5, Then Do Riff 4 (x2) then continue to Riff 6

RIFF 6
e|---------------------------------------------------------------|
B|---------------------------------------------------------------|
G|-12-12-12-9-9-9-7-7-9-9-10-10--12-12-12-9-9-9-7-7-10-10-9-9----|
D|-12-12-12-9-9-9-7-7-9-9-10-10--12-12-12-9-9-9-7-7-10-10-9-9----|x2
A|-10-10-10-7-7-7-5-5-7-7--8--8--10-10-10-7-7-7-5-5--8--8-7-7----|
E|---------------------------------------------------------------|

RIFF 7 (x2)
e|-----0-------0-------0-------0-------------------------------|
B|-----3-------0-------0-------0-------------------------------|
G|-----4-------0-------0-------0-------------------------------|
D|-4---4--4-2--2-------2-------2-------------------------------|
A|-2---2--2----2--3----3--3----3-------------------------------|
E|---0--------------1-------1----------------------------------|

e|------0-------0-------5-------5-------------------------------|
B|------4-------4-------6-------6-------------------------------|
G|------4-------4-------7-------7-------------------------------|
D|-4----4--4----4--7----7--7----7-------------------------------|
A|---2--2----2--2----5--5----5--5-------------------------------|
E|--------------------------------------------------------------|

RIFF 8 (x2)

e|-------------0-0-0-0-0-0--------------0-0-0-0-0-0-------|
B|-------------3-3-3-3-3-3--------------0-0-0-0-0-0-------|
G|-------------4-4-4-4-4-4--------------0-0-0-0-0-0-------|
D|-------------4-4-4-4-4-4--------------2-2-2-2-2-2-------|
A|-2-----------2-2-2-2-2-2--2-----------2-2-2-2-2-2-------|
E|---0-0-0-0-0----------------0-0-0-0-0-------------------|
    pm++++++++              pm++++++++

e|-------------0-0-0-0-0-0--------------0-0-0-0-0-0-------|
B|-------------0-0-0-0-0-0--------------0-0-0-0-0-0-------|
G|-------------0-0-0-0-0-0--------------0-0-0-0-0-0-------|
D|-------------2-2-2-2-2-2--------------2-2-2-2-2-2-------|
A|-3-----------3-3-3-3-3-3--3-----------3-3-3-3-3-3-------|
E|---1-1-1-1-1----------------1-1-1-1-1-------------------|
    pm++++++++              pm+++++++++
e|-------------0-0-0-0-0-0--------------0-0-0-0-0-0-------|
B|-------------4-4-4-4-4-4--------------4-4-4-4-4-4-------|
G|-------------4-4-4-4-4-4--------------4-4-4-4-4-4-------|
D|-------------4-4-4-4-4-4--------------4-4-4-4-4-4-------|
A|-2-----------2-2-2-2-2-2--2-----------2-2-2-2-2-2-------|
E|---0-0-0-0-0----------------0-0-0-0-0-------------------|
   pm+++++++++              pm+++++++++


e|--------------5-5-5-5-5-5---------------5-5-5-5-5-5-----|
B|--------------6-6-6-6-6-6---------------6-6-6-6-6-6-----|
G|--------------7-7-7-7-7-7---------------7-7-7-7-7-7-----|
D|-7------------7-7-7-7-7-7--7------------7-7-7-7-7-7-----|
A|---5-5-5-5-5--5-5-5-5-5-5----5-5-5-5-5--5-5-5-5-5-5-----|
E|--------------------------------------------------------|
    pm++++++++                pm++++++++

e|-----0----|
B|-----3----|
G|-4---4----|x3
D|-4---4----|
A|-2---2----|
E|---0------|

e|-------------0--|
B|-----------3----|
G|-4-------4------|
D|-4-----4--------|
A|-2---2----------|
E|---0------------|
 |+let+++++++ring+|
Suggest correction
comments
print report bad tab
13 comments total. Showing first comments.
0 reply
M-JK 10 Nov 23, 2006 08:56 PM

Very Nass...

+1 reply
travislausch 3,103 Nov 23, 2006 10:43 PM

This is pretty much exactly the same as what's in the tab book. I still think there's some parts missing in the outro. Brent's playing some unison bends there, and there's a single-note melody buried in the mix the heavier part (with the chugging rhythm).

0 reply
travislausch 3,103 Nov 23, 2006 10:44 PM

Oh, I did forget to mention...

I still gave it a 5. Those lead parts aren't THAT important... and what you have is pretty accurate.

guest
You may want to rate the tab now too:
select rating
Wanna post a correction for this tab? Suggest correction