Oops, an error
Loading. Please wait.

Asleep In The Deep Tab

version 1
version 1

Whole song

Interactive

6,870 views 30 this week
1 commentread comment
1 2 3 4 5
x 5
add to favorites
launch autoscroll
font size
0
reset
how to read this tab
guitar tuner
×
Best way to learn
"Asleep In The Deep"
Autoscroll
slow
fast
+/-
esc
set tempo
stop
Author
Difficulty
Tuning
  follow
intermediate
D G C F A D
D|---------------------------------|------------------------------------|
A|-------10-9-9--9^10^9-7----------|---5-4-4--4^5^4-2-------------------|
F|----11------------------9-7------|--6---------------4-2-1-------------|
C|-11-------------------------10-9-|-6----------------------4-----------|
G|---------------------------------|------------------------------------|
D|---------------------------------|------------------------------------|

D|-------------------------------------------------|
A|------10--10---------10--10--------9-9------9----|
F|------11----11-------11----11------9--9----9-9-9-|
C|---11-11------11--11-11------11--9-9----9-9---9--|
G|-9----9---------9----9---------7---7---7-7-------|
D|-------------------------------------------------|

D|----------------------0------0----------------------------------------|
A|------6-------4-----5--5----4-4---------------------------------------|
F|----7--7----6--6-----------6---6--------------------------------------|
C|---7----7--6----6--7----7-6-----6-------------------------------------|
G|-5-------4-------5-------4--------------------------------------------|
D|----------------------------------------------------------------------|

D|----------------------------------------------------------------------|
A|--------8-8-8-7-8-------8-108-7---------------------------------------|
F|-9------9-9-9-9-9-------9-9-9-9-6-6-6-6-6-6-6-6-5-5-5-5-12-12-12-12---|
C|-9--9-9-9-9-9-9-9-9-9-9-9-9-9-9-6-6-6-6-6-6-6-6-5-5-5-5-12-12-12-12---|
G|-7--7-7-----------7-7-7---------4-4-4-4-4-4-4-4-3-3-3-x-10-10-10-x----|
D|----------------------------------------------------------------------|

         9
(or just 9 at the beginning)
         7

D|(1x)------------|(3x)----------|(4X)-----------|----------------------|
A|----------------|--------------|------5--------|----------------------|
F|-------0-----0--|---------0---0|--6-------6----|----------------------|
C|---5-------4---5|--5--------5--|6---6---6---6--|----------------------|
G|-7---7---7------|7----5--------|--------------4|----------------------|
D|----------------|---7---7------|---------------|----------------------|

D|----------------------------------------------------------------------|
A|-------10-9-----------13-12---------5-4---------5-------7-------------|
F|----11------11-----14-------14----6-----6-----7-------9---------------|
C|-11-------------14--------------6-----------7------10-----------------|
G|----------------------------------------------------------------------|
D|----------------------------------------------------------------------|

the moment you walked in the room my friend
the demons, they all went away
be careful they're only asleep for a while
pretending there's nothing to say

throw salt in all the corners here
make sure you watch him leave

build up the walls around this house
and dig out the rot in the floor
block out the entrance with brick and stone
and mortar thats made from coal

crawl into this hole I've made
transform these feelings of fear

I'm on fire
say you'll remember her voice
and i can't get you out of my mind

loose lips have fallen on deaf ears
loose lips have fallen on blind eyes

an ocean of sorrow surrounds this home
i hope that we make it to shore
as time chips away at the fortress walls
its seems that we weathered the storm
the sun begins to show itself
revealing victory

I'm on fire
say you'll remember her voice
and i can't get you out of my mind

************************************

| x  Dead note

************************************
Suggest correction
comments
print report bad tab
1 comment total.
+2 reply
deluxeg 10 Jul 16, 2015 11:25 AM

Nobody in Mastodon plays random shit for solo's. Sounds like the solo is based around D minor pentatonic to me.

guest
You may want to rate the tab now too:
select rating
Wanna post a correction for this tab? Suggest correction