Oops, an error
Loading. Please wait.

Battle At Sea Guitar Pro

4,250 views 9 this week
2 commentsread comments
1 2 3 4 5
accurate
x 5
add to favorites
guitar tuner
Autoscroll
slow
fast
+/-
esc
set tempo
stop
Contributor
Filesize
Instruments
14 Kb
rhythm guitar #1, rhythm guitar #2, rhythm guitar #3
"Battle At Sea"
demo version
Play now

or get full version for Free

Get full version now!
To learn and play this song
in Tab Pro, start free trial
Start free trial

or get $10 off Welcome Bonus

Get welcome bonus
Get access to Tab Pro version of “Battle At Sea”!
Tab Pro is a premium guitar tab service, available on PC, Mac, iOS and Android
START FREE TRIAL
To download “Battle At Sea” Guitar Pro tab click button below
Please note that you must have Guitar Pro software installed on your
computer in order to view this file.
comments
report bad tab
2 comments total.
0 reply
hiyabuddy69 wrote on May 3 2009, 10:10 am

A to A# is half a step not a full step

0 reply
faithfracture wrote on January 8 2010, 06:04 pm

I think the 'coolest riff ever' part (starting at measure 63) should actually be like this:


let ring............................
e|---5---6---9p5---5---6---9---9-6/5--|
B|-8---8---8-----8---8---8---8--------|
G|------------------------------------|
D|------------------------------------|
A|------------------------------------|
E|------------------------------------|

let ring...........................................
e|----17----18----21p17----17----18----21----18p17---|
B|-20----20----20-------20----20----20----20-------20|
G|---------------------------------------------------|
D|---------------------------------------------------|
A|---------------------------------------------------|
E|---------------------------------------------------|

I want to post or [tab]
guest
You may want to rate the tab now too:
select rating
Please do not post tabs as comments. Select "correction" instead!