Oops, an error
Loading. Please wait.

Black Tongue Tab

version 3
version 3

Whole song

Interactive

27,842 views 81 this week
6 commentsread comments
1 2 3 4 5
excellent!
x 17
add to favorites
launch autoscroll
font size
0
reset
how to read this tab
guitar tuner
Autoscroll
slow
fast
+/-
esc
set tempo
stop
Help us to improve Ultimate-Guitar.com Take our survey!
×
Author
Difficulty
Tuning
intermediate
D G C F A D
Tabbed by: g


Right, This based on what i can see them playing on Jules holland performance and 
obviously what on the record.
If i had any major uncertainties i wouldnt bother posting this so here it 
is......comments corrections much obliged, cheers



CHORUS

D|--------------------------------------------------------|
A|--------------------------------------------------------|
F|-----16---------16---15---15--------12------12---11--9--|
C|------x----------x----x----x---------x-------x----x--x--|
G|-----14---------14---13---13--------10------10----9--7--|
D|--0------0--0-------------------------------------------|


D|------------------------------------------------------------|
A|------------------------------------------------------------|
F|-----16----------16---15---15--------12------12----14---15--|
C|------x-----------x----x----x---------x-------x-----x----x--|
G|-----14----------14---13---13--------10------10----12---13--|
D|--0------0--0-----------------------------------------------|


VERSE

D|-----------------------------------------------------|
A|-----------------------------------------------------|
F|-----------------------------------------------------|
C|-----------------------------7-7-7-7-7-7-6-6-6-6-6-6-|
G|-----------------8-888-8-8-8-7-7-7-7-7-7-7-7-7-7-7-7-|
D|---5--555--5-5-5-------------------------------------|

D|-----------------------------------------------------|
A|-----------------------------------------------------|
F|-----------------------------------------------------|
C|----------------------------6-6-6-6-6-6-5-5-5-5-5-5--|
G|----------------8-888-8-8-8-7-7-7-7-7-7-6-6-6-6-6-6--|
D|---5-555-5-5-5---------------------------------------|

D|-----------------------------------------------------|
A|-----------------------------------------------------|
F|-----------------------------------------------------|
C|-----------------------------7-7-7-7-7-7-5-5-5-5-5-5-|
G|-----------------8-888-8-8-8-7-7-7-7-7-7-7-7-7-7-7-7-|
D|---5--555--5-5-5-------------------------------------|

D|-----------------------------------------------------|
A|-----------------------------------------------------|
F|-----------------------------------------------------|
C|----------------------------6-6-6-6-6-6-5-5-5-5-5-5--|
G|----------------8-888-8-8-8-7-7-7-7-7-7-6-6-6-6-6-6--|
D|---5-555-5-5-5---------------------------------------|




MIDDLE BIT 1

Bill

D|------------------------------------------|
A|------------------------------------------|
F|---------------0--------0-------0---------|
C|-------------4---4----4--4----4--4--------|
G|-----5--6------------------3--------------|
D|--3-----------------6---------------------|


D|------------------------------------------|
A|------------------------------------------|
F|----------------0-------0-----------------|
C|-------------4---4----4--4-----0-1-0------|
G|-----5--6---------------------------------|
D|--3-----------------6-------2-------------|

Brent

D|-----------------------------------------------|
A|-----------------------------------------------|
F|--------------11-12-11---11-12-11-----11-12-11-|
C|------12-13-----------------------10-----------|
G|--10------------------13-----------------------|
D|-----------------------------------------------|

D|-----------------------------------------------|
A|-----------------------------------------------|
F|-----------11-12-11---11-12-11-----------------|
C|-----12-13-----------------------12-13-12------|
G|--10----------------13--------9----------------|
D|-----------------------------------------------|



MIDDLE BIT 2

D|---------------------------------------------------------------|
A|---------------------------------------------------------------|
F|---------------------------------------------------------------|
C|------------5-4-5---7--10---9-------------5-4-5--10---7---9----|
G|------------7-6-7---9- 12---10------------7-6-7--12---9--10----|
D|--0--000--------------------------0-000------------------------|

D|--------------------------------------------------------|
A|--------------------------------------------------------|
F|--------------------------------------------------------|
C|--------------------------------------------------------|
G|--------------12-12-12-12-12-12-------------6-6-6-6-6-6-|
D|-8-8-8-8-8-8--------------------3-3-3-3-3-3-------------|




SOLO


Bills Guitar

D|--------------------------------------------------------------|
A|--------------------------------------------------------------|
F|----------------------------------------------9-8-9--/12---8--|
C|-----------9-7-9--7--777--10--9-10--9-999---------------------|
G|--7-777-------------------------------------------------------|
D|--------------------------------------------------------------|


D|-------------------------------------------------------------------------|
A|-------------------------------------------------------------------------|
F|--------------12-12-12-12-12-12-12-12--------------11-11-11-11-11-11-11--|
C|--9-9-9-9-9-9-------------------------7-7-7-7-7-7------------------------|
G|-------------------------------------------------------------------------|
D|-------------------------------------------------------------------------|


D|-------------------------------|
A|-------------------------------|
F|-------------------------------|
C|-9-10-9--7-9-7-5-7-5--4-5-4----|
G|-------------------------------|
D|-------------------------------|


D|---------------------------------------12------------------------------|
A|---------10---------------10-12-----10-----15--13--15--13-12-13--12br--|
F|-9-11-12----11-12--11-12--------12-------------------------------------|
C|-----------------------------------------------------------------------|
G|-----------------------------------------------------------------------|
D|-----------------------------------------------------------------------|


D|------15------19-19-19-20-20-20-19-19-19-17-17-17----------------------|
A|-15b----15br--------------------------------------20-20-20-19-19-19----|
F|-----------12----------------------------------------------------------|
C|-----------------------------------------------------------------------|
G|-----------------------------------------------------------------------|
D|-----------------------------------------------------------------------|


Brents Guitar

D|---------------------------------------------------------|
A|---------------------------------------------------------|
F|----------------------------------------2-----9----------|
C|-----------7-5-7----------5-4-5---------x-----x---4------|
G|-----------7-7-7----------5-5-5---------4----10---2------|
D|-0-000---------  -0-000---------0-000--------------------|




D|------------------------------------------------------------|
A|------------------------------------------------------------|
F|------------------------------------------------------------|
C|---------7-5-7----------5-4-5--------7-----------12-11------|
G|---------7-7-7----------5-5-5-5-4-2--5---5-4-----10-9-------|
D|-0-000----------0-000---------3-2-0------3-2----------------|


SOLO PART 2


Bills Guitar

D|--------------------------------------------------------------------|
A|--------------------------------------------------------------------|
F|---------------------------------------16------------------16-------|
C|----12--15--14--------12-15---17-15-14-----15-14-17-15-14-----15-14-|
G|-12------------11--12-----------------------------------------------|
D|--------------------------------------------------------------------|

D|--------------------------------------------------------------------|
A|--------------------------------------------------------------------|
F|---------------------------------------------1-----------------16br-|
C|------12--15--14----------12-15---17-15-14-----15-14-17-15-14-------|
G|-12----------------11--12-------------------------------------------|
D|--------------------------------------------------------------------|

Brents Guitar

D|--------------------------------------------------------------------|
A|--------------------------------------------------------------------|
F|-------------------------------------12----------------12-----------|
C|--7--9-10-9-6-----7--9-10---14-10-9------10-9-14-10-9------10-9-----|
G|--------------------------------------------------------------------|
D|--------------------------------------------------------------------|



D|--------------------------------------------------------------|
A|--------------------------------------------------------------|
F|-------------------------------------12----------------12br---|
C|--7--9-10-9-6-----7--9-10---14-10-9------10-9-14-10-9---------|
G|--------------------------------------------------------------|
D|--------------------------------------------------------------|


OUTRO

D|---------------------------------------------------------------|
A|---------------------------------------------------------------|
F|---------------------------------------------------------------|
C|------------5-4-5---7--10---9--------------------10---7---9----|
G|------------7-6-7---9- 12---10------------7-6-7--12---9--10----|
D|--0--000--------------------------0-000------------------------|


D|----------------------------------------------------------|
A|----------------------------------------------------------|
F|----------------------------------------------------------|
C|-----------7-5-7----------5-4-5--------7--------12-11-----|
G|-----------7-7-7----------5-5-5-5-4-2--5---5-4--10-9------|
D|-0-000-----------0-000----------3-2-0------3-2------------|






************************************

| /   slide up
| \   slide down
| h   hammer-on
| p   pull-off
| ~   vibrato
| +   harmonic
| x   Mute note
| b   Bend
| pb  Pre-bend
| br  Bend release
| pbr Pre-bend release
| brb Bend release bend

************************************
Suggest correction
What's this?
You can suggest a correction to this tab. Community and Mods will review your correction and vote to approve or reject it.
comments
print report bad tab
6 comments total. Showing first comments.
+1 reply
simmers14 27 wrote on February 5 2012, 02:58 pm

cheers dude, nice tab

0 reply
g-fuente 180 wrote on February 7 2012, 04:33 pm

Cheers bud

+1 reply
Impieman 52 wrote on February 19 2012, 05:12 pm

great tab dude!!

guest
You may want to rate the tab now too:
select rating
Please do not post tabs as comments. Select "correction" instead!