Oops, an error
Loading. Please wait.

Black Tongue Tab

version 4
version 4

Solo

Whole song

Interactive

427 views 1 this week
1 commentread comment
1 2 3 4 5
please rate
add to favorites
launch autoscroll
font size
0
reset
how to read this tab
guitar tuner
Tab Pro tools
  • play this tab
  • loop segment
  • change instrument
  • show fretboard
  • metronome
Autoscroll
slow
fast
+/-
esc
set tempo
stop
Contributor
Difficulty
Tuning
intermediate
D G C F A D
-------------------------------------------------------------------------------
                             Black Tongue - Mastodon
-------------------------------------------------------------------------------
Tabbed by: bmh62695
E-mail:bmh62695@yahoo.com

Tuning:D standard (whole step down)

e|---------------------------------------------------------------------------|
B|---------------------------------------------------------------------------|
G|----16----16-15-15---12---12-11-9----------12-14-15------------------------|
D|------------------------------------then-----------------------------------|
A|----14----14-13-13---10---10--9-7----------10-12-13------------------------|
E|--0----0-0-----------------------------------------------------------------|

e|---------------------------------------------------------------------------|
B|---------10----------------------------------------------------------------|
G|----------9----------10-----------9-----------9----------------------------|
D|----------7-----------7-----------7-----------6----------------------------|
A|--0-0-0-0-0---8-8-8-8-8---7-7-7-7-7---7-7-7-7-7----------------------------|
E|---------------------------------------------------------------------------|

e|---------------------------------------------------------------------------|
B|---------------------------------------------------------------------------|
G|--------------11h12p11-----11h12p11------11h12p11--------------------------|
D|------12--13-------------------------10------------------------------------|
A|--10--------------------13-------------------------------------------------|
E|---------------------------------------------------------------------------|

e|---------------------------------------------------------------------------|
B|---------------------------------------------------------------------------|
G|---------------------------------------------------------------------------|
D|--------------9-9---7---10---9---------------------------------------------|
A|--------------7-6---9---12---10--------------------------------------------|
E|--0--0--0--0------0---0----0-----------------------------------------------|

SOLO (Im sure I got it 98%)

e|---------------------------------------------------------------------------|
B|---------------------------------------------------------------------------|
G|----------4---4----------5---5----------9---9----9s12--8-------------------|
D|--5-5-5-5---5----7-7-7-7---7----9-9-9-9---9--------------------------------|
A|---------------------------------------------------------------------------|
E|---------------------------------------------------------------------------|

e|---------------------------------------------------------------------------|
B|---------------------------------------------------------------------------|
G|-----12t----11t------------------------------------------------------------|
D|--9t-----7t------9-10-9-10-7-9-7-5-7-5-4-5-4-------------------------------|
A|---------------------------------------------------------------------------|
E|---------------------------------------------------------------------------|

e|--------------------------------------12-----------------------------15----|
B|-----------------------------12----------15-13-15-13-12-13-12b-12-15-17b---|
G|-----11-12-14-11-12-11-12-14----12-14--------------------------------------|
D|--14-----------------------------------------------------------------------|
A|---------------------------------------------------------------------------|
E|---------------------------------------------------------------------------|

e|-19t-20t-19t-17t-19t-17t-15t-14b-------------------------------------------|
B|---------------------------------------------------------------------------|
G|---------------------------------------------------------------------------|
D|---------------------------------------------------------------------------|
A|---------------------------------------------------------------------------|
E|---------------------------------------------------------------------------|

e|---------------------------------------------------------------------------|
B|------------------------------12-------------------------------------------|
G|-----7-10-9----------12----------------12-------12-------------------------|       >x2
D|--10--------9-9---------14-12----14-12----14-12----14-12-------------------|
A|---------------------------------------------------------------------------|
E|---------------------------------------------------------------------------|

e|---------------------------------------------------------------------------|
B|---------------------------------------------------------------------------|
G|---------------------------------------------------------------------------|
D|----------7p5-7---------5p4-5--------7--------12--11-----------------------|
A|----------7---7---------5---5-3s4s5--5--5--4--10---9-----------------------|
E|--0-0-0-0-------0-0-0-0-------3s2s3--5--3--2-------------------------------|


************************************

| /   slide up
| \   slide down
| h   hammer-on
| p   pull-off
| ~   vibrato
| +   harmonic
| x   Mute note
| b   Bend
| pb  Pre-bend
| br  Bend release
| pbr Pre-bend release
| brb Bend release bend

************************************
comments
We did not receive enough feedback on this tab! Please rate:
print report bad tab
1 2 3 4 5
1 comment total.
0 reply
karlosquinky wrote on August 1 2015, 09:20 am

What are the T's supposed to mean? Tremolo?

I want to post or [tab]
guest
You may want to rate the tab now too:
select rating
Please do not post tabs as comments. Select "correction" instead!