Oops, an error
Loading. Please wait.

Bladecatcher Tab

version 1
version 1

Whole song

Interactive

3,152 views 1 this week
6 commentsread comments
1 2 3 4 5
accurate
x 4
add to favorites
launch autoscroll
font size
0
reset
how to read this tab
guitar tuner
Autoscroll
slow
fast
+/-
esc
set tempo
stop
Help us to improve Ultimate-Guitar.com Take our survey!
×
Author
Difficulty
MEGALODON 415
intermediate
BLADECATCHER

Tuning - Dcgfad (one step down from standard)

This is my first tab soo I hope it is good. I know this is not 100% but this is as close 
i could get. i couldnt get the intro sorry. i will post that soon


intro (distorted)
-------------------------|
-------------------------|
--9~---------------------|
--x----------------------|
--7~-----------2~--------|
--0~-----------0~--------|

------------------|
------------------|
--10--13----------|
--x----x----------|
--8----11---------|
------------------|

------------|
------------|
------------|
------------|
-4--7-------|
-2--5-------|

------------------------|
------------------------|
--9~--------------------|
--x---------------------|
--7~-----------2~-------|
--0~-----------0~-------|

-----------------------|
-----------------------|
--10--11--12--13\------|
--x----x----x---x------|
--8----9---10--11\-----|
-----------------------|

------------------------|
------------------------|
------------------------|
------------------------|
--4--5--7--9\-----------|
--2--3--5--7\-----------|

Riff 1

Part 1
c ------------------------------------------------------------------------|
g ------------------------------------------------------------------------|
D -2-2-2-2-5-2-5-2---3-3-3-3-6-3-6-3---2-2-2-2-5-2-5-2---3-3-3-3-6-3-6-3--|

Part 2
c ------------------------------------------------------------------------|
g -3-3-3-3-6-3-6-3---2-2-2-2-5-2-5-2---3-3-3-3-6-3-6-3---2-2-2-2-5-2-5-2--|
D ------------------------------------------------------------------------|


Bridge

-------------------------------------|
-------------------------0-8-8-10----|
-------------------0-7-9----------9~-|
-------0-5-7-0-7-9-------------------|
-0-5-7-------------------------------|
-------------------------------------|

Riff 2

d ------------10--------------------------|
a -0--10--12-----12--10--0--8--10---------|   X2
f  --------------------------------9~~----|


 d -----------10---------------|
a -0--10--12-------12--10--0---|
f  ----------------------------|

Bridge

------------------------------------------------|
----------------------------------0-8-8-10------|
--------------------------0-7-9--------------9~-|
---------0-5-7-0-7-9----------------------------|
-0-5-7------------------------------------------|
------------------------------------------------|


Riff 3

d ---0-7---------------------------|
a -------8-0-8---------------------|
f  ------------9-0-9---------------|
c -------------------10-0-7--------|
g  -------------------------9~~----|
D ---------------------------------|

d --------------------------------------|
a --------------------------------------|
f --------------------11-9~~------------|
c -------0-7---0-7-9-0------------------|
g -0-5-7-----9--------------------------|
D --------------------------------------|

d ---0-7---------------------------|
a -------8-0-8---------------------|
f  ------------9-0-9---------------|
c -------------------10-0-7--------|
g  -------------------------9~~----|
D ---------------------------------|

d --------------------------------|
a --------------------------------|
f ---------------------11-9~~-----|
c -------0-7---0-7-9-0------------|
g -0-5-7-----9--------------------|
D --------------------------------|

d -------------------------------|
a -------------------------------|
f -----------------------4/7~~---|
c --------0-5-4-0-4-5-0----------|
g -0-5-7-------------------------|
D -------------------------------|

d -------------------------------------|
a ---------8---------------------------|
f  -0-7-9----9-7----9-7----------------|
c ----------------9------9-7-9-7\5-----|
g ----------------------------------7~-|
D -------------------------------------|


d ---------------------------|
a ---------------------------|
f ---------------------4-----|
c -------0-5-4-0-4-5-0---6~~-|
g -0-5-7---------------------|
D ---------------------------|

d -----------------------------|
a --------5-4------------------|
f --0-5-7-----7-5---7---5------|
c ----------------7---7---7~~--|
g -----------------------------|
D -----------------------------|
Suggest correction new What's this?
You can suggest a correction to this tab. Community and Mods will review your correction and vote to approve or reject it.
comments
print report bad tab
6 comments total. Showing first comments.
0 reply
BottleOfSmoke 337 wrote on February 19 2007, 01:47 pm

i havent tried this yet, but if it works, i will come to your house and make love to you

0 reply
Oblivionbot6000 16 wrote on May 8 2007, 06:25 pm

It's missing the intro
It's missing the end
And the stuff that's actually there is off.
A 1 star seemed a bit too harsh.

0 reply
guitarfreek6889 49 wrote on November 4 2007, 02:47 pm

dude where's the intro that's the whole reason i wanted to learn this song but good job on everything else.

guest
You may want to rate the tab now too:
select rating
Please do not post tabs as comments. Select "correction" instead!